  0
SECTION
  2
HEADER
  9
$ACADVER
  1
AC1015
  9
$ACADMAINTVER
 70
     6
  9
$DWGCODEPAGE
  3
ANSI_932
  9
$INSBASE
 10
0.0
 20
0.0
 30
0.0
  9
$EXTMIN
 10
490.7027776465296
 20
-156.9888778231442
 30
0.0
  9
$EXTMAX
 10
936.2091366552816
 20
158.0111471657539
 30
0.0
  9
$LIMMIN
 10
0.0
 20
0.0
  9
$LIMMAX
 10
12.0
 20
9.0
  9
$ORTHOMODE
 70
     0
  9
$REGENMODE
 70
     1
  9
$FILLMODE
 70
     1
  9
$QTEXTMODE
 70
     0
  9
$MIRRTEXT
 70
     1
  9
$LTSCALE
 40
1.0
  9
$ATTMODE
 70
     1
  9
$TEXTSIZE
 40
1.0
  9
$TRACEWID
 40
0.05
  9
$TEXTSTYLE
  7
STANDARD
  9
$CLAYER
  8
0
  9
$CELTYPE
  6
CONTINUOUS
  9
$CECOLOR
 62
   256
  9
$CELTSCALE
 40
1.0
  9
$DISPSILH
 70
     0
  9
$DIMSCALE
 40
1.0
  9
$DIMASZ
 40
0.18
  9
$DIMEXO
 40
0.0625
  9
$DIMDLI
 40
0.38
  9
$DIMRND
 40
0.0
  9
$DIMDLE
 40
0.0
  9
$DIMEXE
 40
0.18
  9
$DIMTP
 40
0.0
  9
$DIMTM
 40
0.0
  9
$DIMTXT
 40
0.18
  9
$DIMCEN
 40
0.09
  9
$DIMTSZ
 40
0.0
  9
$DIMTOL
 70
     0
  9
$DIMLIM
 70
     0
  9
$DIMTIH
 70
     1
  9
$DIMTOH
 70
     1
  9
$DIMSE1
 70
     0
  9
$DIMSE2
 70
     0
  9
$DIMTAD
 70
     0
  9
$DIMZIN
 70
     0
  9
$DIMBLK
  1

  9
$DIMASO
 70
     1
  9
$DIMSHO
 70
     1
  9
$DIMPOST
  1

  9
$DIMAPOST
  1

  9
$DIMALT
 70
     0
  9
$DIMALTD
 70
     2
  9
$DIMALTF
 40
25.4
  9
$DIMLFAC
 40
1.0
  9
$DIMTOFL
 70
     0
  9
$DIMTVP
 40
0.0
  9
$DIMTIX
 70
     0
  9
$DIMSOXD
 70
     0
  9
$DIMSAH
 70
     0
  9
$DIMBLK1
  1

  9
$DIMBLK2
  1

  9
$DIMSTYLE
  2
Standard
  9
$DIMCLRD
 70
     0
  9
$DIMCLRE
 70
     0
  9
$DIMCLRT
 70
     0
  9
$DIMTFAC
 40
1.0
  9
$DIMGAP
 40
0.09
  9
$DIMJUST
 70
     0
  9
$DIMSD1
 70
     0
  9
$DIMSD2
 70
     0
  9
$DIMTOLJ
 70
     1
  9
$DIMTZIN
 70
     0
  9
$DIMALTZ
 70
     0
  9
$DIMALTTZ
 70
     0
  9
$DIMUPT
 70
     0
  9
$DIMDEC
 70
     4
  9
$DIMTDEC
 70
     4
  9
$DIMALTU
 70
     2
  9
$DIMALTTD
 70
     2
  9
$DIMTXSTY
  7
STANDARD
  9
$DIMAUNIT
 70
     0
  9
$DIMADEC
 70
     0
  9
$DIMALTRND
 40
0.0
  9
$DIMAZIN
 70
     0
  9
$DIMDSEP
 70
    46
  9
$DIMATFIT
 70
     3
  9
$DIMFRAC
 70
     0
  9
$DIMLDRBLK
  1

  9
$DIMLUNIT
 70
     2
  9
$DIMLWD
 70
    -2
  9
$DIMLWE
 70
    -2
  9
$DIMTMOVE
 70
     0
  9
$LUNITS
 70
     2
  9
$LUPREC
 70
     4
  9
$SKETCHINC
 40
0.1
  9
$FILLETRAD
 40
0.0
  9
$AUNITS
 70
     0
  9
$AUPREC
 70
     0
  9
$MENU
  1
.
  9
$ELEVATION
 40
0.0
  9
$PELEVATION
 40
0.0
  9
$THICKNESS
 40
0.0
  9
$LIMCHECK
 70
     0
  9
$CHAMFERA
 40
0.0
  9
$CHAMFERB
 40
0.0
  9
$CHAMFERC
 40
0.0
  9
$CHAMFERD
 40
0.0
  9
$SKPOLY
 70
     0
  9
$TDCREATE
 40
2452359.431860417
  9
$TDUCREATE
 40
2452359.056860417
  9
$TDUPDATE
 40
2459744.414934271
  9
$TDUUPDATE
 40
2459744.039934271
  9
$TDINDWG
 40
0.0401941435
  9
$TDUSRTIMER
 40
0.0008389931
  9
$USRTIMER
 70
     1
  9
$ANGBASE
 50
0.0
  9
$ANGDIR
 70
     0
  9
$PDMODE
 70
     0
  9
$PDSIZE
 40
1.5
  9
$PLINEWID
 40
0.0
  9
$SPLFRAME
 70
     0
  9
$SPLINETYPE
 70
     6
  9
$SPLINESEGS
 70
     8
  9
$HANDSEED
  5
B39
  9
$SURFTAB1
 70
     6
  9
$SURFTAB2
 70
     6
  9
$SURFTYPE
 70
     6
  9
$SURFU
 70
     6
  9
$SURFV
 70
     6
  9
$UCSBASE
  2

  9
$UCSNAME
  2

  9
$UCSORG
 10
0.0
 20
0.0
 30
0.0
  9
$UCSXDIR
 10
1.0
 20
0.0
 30
0.0
  9
$UCSYDIR
 10
0.0
 20
1.0
 30
0.0
  9
$UCSORTHOREF
  2

  9
$UCSORTHOVIEW
 70
     0
  9
$UCSORGTOP
 10
0.0
 20
0.0
 30
0.0
  9
$UCSORGBOTTOM
 10
0.0
 20
0.0
 30
0.0
  9
$UCSORGLEFT
 10
0.0
 20
0.0
 30
0.0
  9
$UCSORGRIGHT
 10
0.0
 20
0.0
 30
0.0
  9
$UCSORGFRONT
 10
0.0
 20
0.0
 30
0.0
  9
$UCSORGBACK
 10
0.0
 20
0.0
 30
0.0
  9
$PUCSBASE
  2

  9
$PUCSNAME
  2

  9
$PUCSORG
 10
0.0
 20
0.0
 30
0.0
  9
$PUCSXDIR
 10
1.0
 20
0.0
 30
0.0
  9
$PUCSYDIR
 10
0.0
 20
1.0
 30
0.0
  9
$PUCSORTHOREF
  2

  9
$PUCSORTHOVIEW
 70
     0
  9
$PUCSORGTOP
 10
0.0
 20
0.0
 30
0.0
  9
$PUCSORGBOTTOM
 10
0.0
 20
0.0
 30
0.0
  9
$PUCSORGLEFT
 10
0.0
 20
0.0
 30
0.0
  9
$PUCSORGRIGHT
 10
0.0
 20
0.0
 30
0.0
  9
$PUCSORGFRONT
 10
0.0
 20
0.0
 30
0.0
  9
$PUCSORGBACK
 10
0.0
 20
0.0
 30
0.0
  9
$USERI1
 70
     0
  9
$USERI2
 70
     0
  9
$USERI3
 70
     0
  9
$USERI4
 70
     0
  9
$USERI5
 70
     0
  9
$USERR1
 40
0.0
  9
$USERR2
 40
0.0
  9
$USERR3
 40
0.0
  9
$USERR4
 40
0.0
  9
$USERR5
 40
0.0
  9
$WORLDVIEW
 70
     1
  9
$SHADEDGE
 70
     3
  9
$SHADEDIF
 70
    70
  9
$TILEMODE
 70
     1
  9
$MAXACTVP
 70
    64
  9
$PINSBASE
 10
0.0
 20
0.0
 30
0.0
  9
$PLIMCHECK
 70
     0
  9
$PEXTMIN
 10
1.000000000000000E+20
 20
1.000000000000000E+20
 30
1.000000000000000E+20
  9
$PEXTMAX
 10
-1.000000000000000E+20
 20
-1.000000000000000E+20
 30
-1.000000000000000E+20
  9
$PLIMMIN
 10
0.0
 20
0.0
  9
$PLIMMAX
 10
0.0
 20
0.0
  9
$UNITMODE
 70
     0
  9
$VISRETAIN
 70
     1
  9
$PLINEGEN
 70
     0
  9
$PSLTSCALE
 70
     1
  9
$TREEDEPTH
 70
  3020
  9
$CMLSTYLE
  2
Standard
  9
$CMLJUST
 70
     0
  9
$CMLSCALE
 40
1.0
  9
$PROXYGRAPHICS
 70
     1
  9
$MEASUREMENT
 70
     0
  9
$CELWEIGHT
370
    -1
  9
$ENDCAPS
280
     0
  9
$JOINSTYLE
280
     0
  9
$LWDISPLAY
290
     0
  9
$INSUNITS
 70
     0
  9
$HYPERLINKBASE
  1

  9
$STYLESHEET
  1

  9
$XEDIT
290
     1
  9
$CEPSNTYPE
380
     0
  9
$PSTYLEMODE
290
     1
  9
$FINGERPRINTGUID
  2
{A68C0F0D-CA30-44BB-A221-CB4012BF2153}
  9
$VERSIONGUID
  2
{2A176D20-5E49-4B6A-9BE0-9072F9B48EF6}
  9
$EXTNAMES
290
     1
  9
$PSVPSCALE
 40
0.0
  9
$OLESTARTUP
290
     0
  0
ENDSEC
  0
SECTION
  2
CLASSES
  0
CLASS
  1
ACDBDICTIONARYWDFLT
  2
AcDbDictionaryWithDefault
  3
ObjectDBX Classes
 90
        0
280
     0
281
     0
  0
CLASS
  1
ACDBPLACEHOLDER
  2
AcDbPlaceHolder
  3
ObjectDBX Classes
 90
        0
280
     0
281
     0
  0
CLASS
  1
LAYOUT
  2
AcDbLayout
  3
ObjectDBX Classes
 90
        0
280
     0
281
     0
  0
CLASS
  1
MATERIAL
  2
AcDbMaterial
  3
ObjectDBX Classes
 90
     1153
280
     0
281
     0
  0
CLASS
  1
VISUALSTYLE
  2
AcDbVisualStyle
  3
ObjectDBX Classes
 90
     4095
280
     0
281
     0
  0
CLASS
  1
TABLESTYLE
  2
AcDbTableStyle
  3
ObjectDBX Classes
 90
     4095
280
     0
281
     0
  0
CLASS
  1
SCALE
  2
AcDbScale
  3
ObjectDBX Classes
 90
     1153
280
     0
281
     0
  0
CLASS
  1
MLEADERSTYLE
  2
AcDbMLeaderStyle
  3
ACDB_MLEADERSTYLE_CLASS
 90
     4095
280
     0
281
     0
  0
CLASS
  1
CELLSTYLEMAP
  2
AcDbCellStyleMap
  3
ObjectDBX Classes
 90
     1152
280
     0
281
     0
  0
CLASS
  1
DICTIONARYVAR
  2
AcDbDictionaryVar
  3
ObjectDBX Classes
 90
        0
280
     0
281
     0
  0
CLASS
  1
SORTENTSTABLE
  2
AcDbSortentsTable
  3
ObjectDBX Classes
 90
        0
280
     0
281
     0
  0
ENDSEC
  0
SECTION
  2
TABLES
  0
TABLE
  2
VPORT
  5
8
330
0
100
AcDbSymbolTable
 70
     1
  0
VPORT
  5
8DF
330
8
100
AcDbSymbolTableRecord
100
AcDbViewportTableRecord
  2
*Active
 70
     0
 10
0.0
 20
0.0
 11
1.0
 21
1.0
 12
872.7694982795725
 22
-118.3116799526771
 13
0.0
 23
0.0
 14
1.0
 24
1.0
 15
0.0
 25
0.0
 16
0.0
 26
0.0
 36
1.0
 17
0.0
 27
0.0
 37
0.0
 40
55.6637603146531
 41
2.082079343365253
 42
50.0
 43
0.0
 44
0.0
 50
0.0
 51
0.0
 71
    16
 72
   100
 73
     1
 74
     1
 75
     0
 76
     0
 77
     0
 78
     0
281
     0
 65
     1
110
0.0
120
0.0
130
0.0
111
1.0
121
0.0
131
0.0
112
0.0
122
1.0
132
0.0
 79
     0
146
0.0
  0
ENDTAB
  0
TABLE
  2
LTYPE
  5
5
330
0
100
AcDbSymbolTable
 70
     9
  0
LTYPE
  5
13
330
5
100
AcDbSymbolTableRecord
100
AcDbLinetypeTableRecord
  2
ByBlock
 70
     0
  3

 72
    65
 73
     0
 40
0.0
  0
LTYPE
  5
14
330
5
100
AcDbSymbolTableRecord
100
AcDbLinetypeTableRecord
  2
ByLayer
 70
     0
  3

 72
    65
 73
     0
 40
0.0
  0
LTYPE
  5
15
330
5
100
AcDbSymbolTableRecord
100
AcDbLinetypeTableRecord
  2
CONTINUOUS
 70
     0
  3
実線
 72
    65
 73
     0
 40
0.0
  0
LTYPE
  5
22
330
5
100
AcDbSymbolTableRecord
100
AcDbLinetypeTableRecord
  2
DASHED
 70
     0
  3
破線A
 72
    65
 73
     2
 40
7.5
 49
5.0
 74
     0
 49
-2.5
 74
     0
  0
LTYPE
  5
23
330
5
100
AcDbSymbolTableRecord
100
AcDbLinetypeTableRecord
  2
DASHEDX2
 70
     0
  3
破線B
 72
    65
 73
     2
 40
15.0
 49
10.0
 74
     0
 49
-5.0
 74
     0
  0
LTYPE
  5
24
330
5
100
AcDbSymbolTableRecord
100
AcDbLinetypeTableRecord
  2
DASHDOT
 70
     0
  3
１点鎖線A
 72
    65
 73
     4
 40
10.0
 49
5.0
 74
     0
 49
-2.5
 74
     0
 49
0.0
 74
     0
 49
-2.5
 74
     0
  0
LTYPE
  5
25
330
5
100
AcDbSymbolTableRecord
100
AcDbLinetypeTableRecord
  2
DASHDOTX2
 70
     0
  3
１点鎖線B
 72
    65
 73
     4
 40
20.0
 49
10.0
 74
     0
 49
-5.0
 74
     0
 49
0.0
 74
     0
 49
-5.0
 74
     0
  0
LTYPE
  5
26
330
5
100
AcDbSymbolTableRecord
100
AcDbLinetypeTableRecord
  2
DIVIDE2
 70
     0
  3
２点鎖線A
 72
    65
 73
     6
 40
6.25
 49
2.5
 74
     0
 49
-1.25
 74
     0
 49
0.0
 74
     0
 49
-1.25
 74
     0
 49
0.0
 74
     0
 49
-1.25
 74
     0
  0
LTYPE
  5
27
330
5
100
AcDbSymbolTableRecord
100
AcDbLinetypeTableRecord
  2
DIVIDE
 70
     0
  3
２点鎖線B
 72
    65
 73
     6
 40
12.5
 49
5.0
 74
     0
 49
-2.5
 74
     0
 49
0.0
 74
     0
 49
-2.5
 74
     0
 49
0.0
 74
     0
 49
-2.5
 74
     0
  0
LTYPE
  5
28
330
5
100
AcDbSymbolTableRecord
100
AcDbLinetypeTableRecord
  2
DOT
 70
     0
  3
点線A
 72
    65
 73
     2
 40
2.5
 49
0.0
 74
     0
 49
-2.5
 74
     0
  0
LTYPE
  5
29
330
5
100
AcDbSymbolTableRecord
100
AcDbLinetypeTableRecord
  2
DOTX2
 70
     0
  3
点線B
 72
    65
 73
     2
 40
5.0
 49
0.0
 74
     0
 49
-5.0
 74
     0
  0
ENDTAB
  0
TABLE
  2
LAYER
  5
2
102
{ACAD_XDICTIONARY
360
968
102
}
330
0
100
AcDbSymbolTable
 70
     7
  0
LAYER
  5
10
102
{ACAD_XDICTIONARY
360
8B0
102
}
330
2
100
AcDbSymbolTableRecord
100
AcDbLayerTableRecord
  2
0
 70
     0
 62
     7
  6
CONTINUOUS
370
    -3
390
F
  0
LAYER
  5
2A
102
{ACAD_XDICTIONARY
360
8B2
102
}
330
2
100
AcDbSymbolTableRecord
100
AcDbLayerTableRecord
  2
ﾚｲﾔ1
 70
     0
 62
     7
  6
CONTINUOUS
370
    -3
390
F
  0
LAYER
  5
30
102
{ACAD_XDICTIONARY
360
8B4
102
}
330
2
100
AcDbSymbolTableRecord
100
AcDbLayerTableRecord
  2
補助線
 70
     0
 62
     1
  6
DOT
370
    -3
390
F
  0
LAYER
  5
31
102
{ACAD_XDICTIONARY
360
8B6
102
}
330
2
100
AcDbSymbolTableRecord
100
AcDbLayerTableRecord
  2
文字
 70
     0
 62
    13
  6
CONTINUOUS
370
    -3
390
F
  0
LAYER
  5
38
102
{ACAD_XDICTIONARY
360
8B8
102
}
330
2
100
AcDbSymbolTableRecord
100
AcDbLayerTableRecord
  2
寸法
 70
     0
 62
    29
  6
CONTINUOUS
370
    -3
390
F
  0
LAYER
  5
8FA
102
{ACAD_XDICTIONARY
360
8FB
102
}
330
2
100
AcDbSymbolTableRecord
100
AcDbLayerTableRecord
  2
図面枠
 70
     0
 62
     5
  6
CONTINUOUS
370
    -3
390
F
  0
LAYER
  5
8FD
102
{ACAD_XDICTIONARY
360
8FE
102
}
330
2
100
AcDbSymbolTableRecord
100
AcDbLayerTableRecord
  2
下図
 70
     0
 62
     8
  6
DASHDOT
290
     0
370
    -3
390
F
  0
ENDTAB
  0
TABLE
  2
STYLE
  5
3
330
0
100
AcDbSymbolTable
 70
    13
  0
STYLE
  5
11
330
3
100
AcDbSymbolTableRecord
100
AcDbTextStyleTableRecord
  2
STANDARD
 70
     0
 40
1.0
 41
1.0
 50
0.0
 71
     0
 42
1.0
  3
TXT
  4
BIGFONT
  0
STYLE
  5
3B
330
3
100
AcDbSymbolTableRecord
100
AcDbTextStyleTableRecord
  2
TATE
 70
     4
 40
1.0
 41
1.0
 50
0.0
 71
     0
 42
1.0
  3
TXT
  4
BIGFONT
  0
STYLE
  5
3C
330
3
100
AcDbSymbolTableRecord
100
AcDbTextStyleTableRecord
  2
TEXTSTYLE01
 70
     0
 40
0.0
 41
1.0
 50
0.0
 71
     0
 42
0.0
  3
TXT
  4
BIGFONT
  0
STYLE
  5
3D
330
3
100
AcDbSymbolTableRecord
100
AcDbTextStyleTableRecord
  2
TEXTSTYLE02
 70
     0
 40
0.0
 41
1.0
 50
0.0
 71
     0
 42
0.0
  3
TXT
  4
BIGFONT
  0
STYLE
  5
3E
330
3
100
AcDbSymbolTableRecord
100
AcDbTextStyleTableRecord
  2
TEXTSTYLE03
 70
     0
 40
0.0
 41
1.0
 50
0.0
 71
     0
 42
0.0
  3
TXT
  4
BIGFONT
  0
STYLE
  5
3F
330
3
100
AcDbSymbolTableRecord
100
AcDbTextStyleTableRecord
  2
TEXTSTYLE04
 70
     0
 40
0.0
 41
1.0
 50
0.0
 71
     0
 42
0.0
  3
TXT
  4
BIGFONT
  0
STYLE
  5
40
330
3
100
AcDbSymbolTableRecord
100
AcDbTextStyleTableRecord
  2
TEXTSTYLE05
 70
     0
 40
0.0
 41
1.0
 50
0.0
 71
     0
 42
0.0
  3
TXT
  4
BIGFONT
  0
STYLE
  5
41
330
3
100
AcDbSymbolTableRecord
100
AcDbTextStyleTableRecord
  2
TEXTSTYLE06
 70
     0
 40
0.0
 41
1.0
 50
0.0
 71
     0
 42
0.0
  3

  4

  0
STYLE
  5
42
330
3
100
AcDbSymbolTableRecord
100
AcDbTextStyleTableRecord
  2
TEXTSTYLE07
 70
     0
 40
0.0
 41
1.0
 50
0.0
 71
     0
 42
0.0
  3

  4

  0
STYLE
  5
43
330
3
100
AcDbSymbolTableRecord
100
AcDbTextStyleTableRecord
  2
TEXTSTYLE08
 70
     0
 40
0.0
 41
1.0
 50
0.0
 71
     0
 42
0.0
  3

  4

  0
STYLE
  5
44
330
3
100
AcDbSymbolTableRecord
100
AcDbTextStyleTableRecord
  2
TEXTSTYLE09
 70
     0
 40
0.0
 41
1.0
 50
0.0
 71
     0
 42
0.0
  3

  4

  0
STYLE
  5
45
330
3
100
AcDbSymbolTableRecord
100
AcDbTextStyleTableRecord
  2
TEXTSTYLE10
 70
     0
 40
0.0
 41
1.0
 50
0.0
 71
     0
 42
0.0
  3

  4

  0
STYLE
  5
904
330
3
100
AcDbSymbolTableRecord
100
AcDbTextStyleTableRecord
  2
DIMFONT1
 70
     0
 40
0.0
 41
1.193548387096774
 50
0.0
 71
     0
 42
1.0
  3
msgothic.ttc
  4

1001
ACAD
1000
MS PGothic
1071
    32818
  0
ENDTAB
  0
TABLE
  2
VIEW
  5
6
330
0
100
AcDbSymbolTable
 70
     0
  0
ENDTAB
  0
TABLE
  2
UCS
  5
7
330
0
100
AcDbSymbolTable
 70
     0
  0
ENDTAB
  0
TABLE
  2
APPID
  5
9
330
0
100
AcDbSymbolTable
 70
     4
  0
APPID
  5
12
330
9
100
AcDbSymbolTableRecord
100
AcDbRegAppTableRecord
  2
ACAD
 70
     0
  0
APPID
  5
8AC
330
9
100
AcDbSymbolTableRecord
100
AcDbRegAppTableRecord
  2
ACAD_MLEADERVER
 70
     0
  0
APPID
  5
906
330
9
100
AcDbSymbolTableRecord
100
AcDbRegAppTableRecord
  2
ACAD_NAV_VCDISPLAY
 70
     0
  0
APPID
  5
AF1
330
9
100
AcDbSymbolTableRecord
100
AcDbRegAppTableRecord
  2
PLOTTRANSPARENCY
 70
     0
  0
ENDTAB
  0
TABLE
  2
DIMSTYLE
  5
A
330
0
100
AcDbSymbolTable
 70
     3
100
AcDbDimStyleTable
  0
DIMSTYLE
105
551
330
A
100
AcDbSymbolTableRecord
100
AcDbDimStyleTableRecord
  2
Standard
 70
     0
178
     0
340
11
  0
DIMSTYLE
105
903
330
A
100
AcDbSymbolTableRecord
100
AcDbDimStyleTableRecord
  2
DIM001
 70
     0
 40
10.0
 41
1.0
 42
0.0
 44
1.0
 45
1.0
 73
     0
 74
     0
 77
     3
140
1.216216216216216
147
0.2
172
     1
176
     7
177
     7
271
     0
178
     7
271
     0
273
     6
340
904
  0
DIMSTYLE
105
905
330
A
100
AcDbSymbolTableRecord
100
AcDbDimStyleTableRecord
  2
DIM002
 70
     0
 40
10.0
 41
1.0
 42
0.0
 44
0.0
 45
1.0
 73
     0
 74
     0
 77
     3
140
1.216216216216216
147
0.2
172
     1
176
     7
177
     7
271
     0
178
     7
271
     0
273
     6
340
904
  0
ENDTAB
  0
TABLE
  2
BLOCK_RECORD
  5
1
330
0
100
AcDbSymbolTable
 70
    12
  0
BLOCK_RECORD
  5
1E
102
{ACAD_XDICTIONARY
360
AF2
102
}
330
1
100
AcDbSymbolTableRecord
100
AcDbBlockTableRecord
  2
*Model_Space
340
21
  0
BLOCK_RECORD
  5
1A
330
1
100
AcDbSymbolTableRecord
100
AcDbBlockTableRecord
  2
*Paper_Space
340
1D
  0
BLOCK_RECORD
  5
31F
330
1
100
AcDbSymbolTableRecord
100
AcDbBlockTableRecord
  2
*U0
340
0
102
{BLKREFS
331
424
102
}
  0
BLOCK_RECORD
  5
33D
330
1
100
AcDbSymbolTableRecord
100
AcDbBlockTableRecord
  2
*U1
340
0
102
{BLKREFS
331
425
102
}
  0
BLOCK_RECORD
  5
345
330
1
100
AcDbSymbolTableRecord
100
AcDbBlockTableRecord
  2
*U2
340
0
102
{BLKREFS
331
512
102
}
  0
BLOCK_RECORD
  5
34A
330
1
100
AcDbSymbolTableRecord
100
AcDbBlockTableRecord
  2
*U3
340
0
102
{BLKREFS
331
513
102
}
  0
BLOCK_RECORD
  5
34F
330
1
100
AcDbSymbolTableRecord
100
AcDbBlockTableRecord
  2
*D4
340
0
102
{BLKREFS
331
54A
102
}
  0
BLOCK_RECORD
  5
360
330
1
100
AcDbSymbolTableRecord
100
AcDbBlockTableRecord
  2
*D5
340
0
102
{BLKREFS
331
54B
102
}
  0
BLOCK_RECORD
  5
370
330
1
100
AcDbSymbolTableRecord
100
AcDbBlockTableRecord
  2
*D6
340
0
102
{BLKREFS
331
54C
102
}
  0
BLOCK_RECORD
  5
380
330
1
100
AcDbSymbolTableRecord
100
AcDbBlockTableRecord
  2
*D7
340
0
102
{BLKREFS
331
54D
102
}
  0
BLOCK_RECORD
  5
391
330
1
100
AcDbSymbolTableRecord
100
AcDbBlockTableRecord
  2
*D8
340
0
102
{BLKREFS
331
54E
102
}
  0
BLOCK_RECORD
  5
3A2
330
1
100
AcDbSymbolTableRecord
100
AcDbBlockTableRecord
  2
*D9
340
0
102
{BLKREFS
331
54F
102
}
  0
BLOCK_RECORD
  5
3B3
330
1
100
AcDbSymbolTableRecord
100
AcDbBlockTableRecord
  2
*U10
340
0
102
{BLKREFS
331
550
102
}
  0
BLOCK_RECORD
  5
962
330
1
100
AcDbSymbolTableRecord
100
AcDbBlockTableRecord
  2
_Open30
340
0
  0
ENDTAB
  0
ENDSEC
  0
SECTION
  2
BLOCKS
  0
BLOCK
  5
1F
330
1E
100
AcDbEntity
  8
0
100
AcDbBlockBegin
  2
*Model_Space
 70
     0
 10
0.0
 20
0.0
 30
0.0
  3
*Model_Space
  1

  0
ENDBLK
  5
20
330
1E
100
AcDbEntity
  8
0
100
AcDbBlockEnd
  0
BLOCK
  5
1B
330
1A
100
AcDbEntity
 67
     1
  8
0
100
AcDbBlockBegin
  2
*Paper_Space
 70
     0
 10
0.0
 20
0.0
 30
0.0
  3
*Paper_Space
  1

  0
ENDBLK
  5
1C
330
1A
100
AcDbEntity
 67
     1
  8
0
100
AcDbBlockEnd
  0
BLOCK
  5
320
330
31F
100
AcDbEntity
  8
0
100
AcDbBlockBegin
  2
*U0
 70
     1
 10
0.0
 20
0.0
 30
0.0
  3
*U0
  1

  0
LINE
  5
321
330
31F
100
AcDbEntity
  8
ﾚｲﾔ1
  6
Continuous
100
AcDbLine
 10
-142.444988
 20
51.04448699999999
 30
0.0
 11
-141.194988
 21
52.744487
 31
0.0
  0
LINE
  5
322
330
31F
100
AcDbEntity
  8
ﾚｲﾔ1
  6
Continuous
100
AcDbLine
 10
-141.194988
 20
52.744487
 30
0.0
 11
-140.694988
 21
53.394487
 31
0.0
  0
LINE
  5
323
330
31F
100
AcDbEntity
  8
ﾚｲﾔ1
  6
Continuous
100
AcDbLine
 10
-140.694988
 20
53.394487
 30
0.0
 11
-140.194988
 21
53.944487
 31
0.0
  0
LINE
  5
324
330
31F
100
AcDbEntity
  8
ﾚｲﾔ1
  6
Continuous
100
AcDbLine
 10
-140.194988
 20
53.944487
 30
0.0
 11
-139.694988
 21
54.39448699999999
 31
0.0
  0
LINE
  5
325
330
31F
100
AcDbEntity
  8
ﾚｲﾔ1
  6
Continuous
100
AcDbLine
 10
-139.694988
 20
54.39448699999999
 30
0.0
 11
-139.244988
 21
54.74448699999999
 31
0.0
  0
LINE
  5
326
330
31F
100
AcDbEntity
  8
ﾚｲﾔ1
  6
Continuous
100
AcDbLine
 10
-139.244988
 20
54.74448699999999
 30
0.0
 11
-138.694988
 21
54.994487
 31
0.0
  0
LINE
  5
327
330
31F
100
AcDbEntity
  8
ﾚｲﾔ1
  6
Continuous
100
AcDbLine
 10
-138.694988
 20
54.994487
 30
0.0
 11
-137.994988
 21
55.244487
 31
0.0
  0
LINE
  5
328
330
31F
100
AcDbEntity
  8
ﾚｲﾔ1
  6
Continuous
100
AcDbLine
 10
-137.994988
 20
55.244487
 30
0.0
 11
-136.794988
 21
55.694487
 31
0.0
  0
LINE
  5
329
330
31F
100
AcDbEntity
  8
ﾚｲﾔ1
  6
Continuous
100
AcDbLine
 10
-136.794988
 20
55.694487
 30
0.0
 11
-135.144988
 21
56.294487
 31
0.0
  0
LINE
  5
32A
330
31F
100
AcDbEntity
  8
ﾚｲﾔ1
  6
Continuous
100
AcDbLine
 10
-135.144988
 20
56.294487
 30
0.0
 11
-133.044988
 21
57.044487
 31
0.0
  0
LINE
  5
32B
330
31F
100
AcDbEntity
  8
ﾚｲﾔ1
  6
Continuous
100
AcDbLine
 10
-133.044988
 20
57.044487
 30
0.0
 11
-130.444988
 21
57.994487
 31
0.0
  0
LINE
  5
32C
330
31F
100
AcDbEntity
  8
ﾚｲﾔ1
  6
Continuous
100
AcDbLine
 10
-130.444988
 20
57.994487
 30
0.0
 11
-127.644988
 21
58.794487
 31
0.0
  0
LINE
  5
32D
330
31F
100
AcDbEntity
  8
ﾚｲﾔ1
  6
Continuous
100
AcDbLine
 10
-127.644988
 20
58.794487
 30
0.0
 11
-124.844988
 21
59.194487
 31
0.0
  0
LINE
  5
32E
330
31F
100
AcDbEntity
  8
ﾚｲﾔ1
  6
Continuous
100
AcDbLine
 10
-124.844988
 20
59.194487
 30
0.0
 11
-122.044988
 21
59.194487
 31
0.0
  0
LINE
  5
32F
330
31F
100
AcDbEntity
  8
ﾚｲﾔ1
  6
Continuous
100
AcDbLine
 10
-122.044988
 20
59.194487
 30
0.0
 11
-119.244988
 21
58.794487
 31
0.0
  0
LINE
  5
330
330
31F
100
AcDbEntity
  8
ﾚｲﾔ1
  6
Continuous
100
AcDbLine
 10
-119.244988
 20
58.794487
 30
0.0
 11
-116.444988
 21
57.994487
 31
0.0
  0
LINE
  5
331
330
31F
100
AcDbEntity
  8
ﾚｲﾔ1
  6
Continuous
100
AcDbLine
 10
-116.444988
 20
57.994487
 30
0.0
 11
-113.894988
 21
57.044487
 31
0.0
  0
LINE
  5
332
330
31F
100
AcDbEntity
  8
ﾚｲﾔ1
  6
Continuous
100
AcDbLine
 10
-113.894988
 20
57.044487
 30
0.0
 11
-111.794988
 21
56.294487
 31
0.0
  0
LINE
  5
333
330
31F
100
AcDbEntity
  8
ﾚｲﾔ1
  6
Continuous
100
AcDbLine
 10
-111.794988
 20
56.294487
 30
0.0
 11
-110.144988
 21
55.694487
 31
0.0
  0
LINE
  5
334
330
31F
100
AcDbEntity
  8
ﾚｲﾔ1
  6
Continuous
100
AcDbLine
 10
-110.144988
 20
55.694487
 30
0.0
 11
-108.944988
 21
55.244487
 31
0.0
  0
LINE
  5
335
330
31F
100
AcDbEntity
  8
ﾚｲﾔ1
  6
Continuous
100
AcDbLine
 10
-108.944988
 20
55.244487
 30
0.0
 11
-108.194988
 21
54.994487
 31
0.0
  0
LINE
  5
336
330
31F
100
AcDbEntity
  8
ﾚｲﾔ1
  6
Continuous
100
AcDbLine
 10
-108.194988
 20
54.994487
 30
0.0
 11
-107.694988
 21
54.74448699999999
 31
0.0
  0
LINE
  5
337
330
31F
100
AcDbEntity
  8
ﾚｲﾔ1
  6
Continuous
100
AcDbLine
 10
-107.694988
 20
54.74448699999999
 30
0.0
 11
-107.194988
 21
54.39448699999999
 31
0.0
  0
LINE
  5
338
330
31F
100
AcDbEntity
  8
ﾚｲﾔ1
  6
Continuous
100
AcDbLine
 10
-107.194988
 20
54.39448699999999
 30
0.0
 11
-106.694988
 21
53.944487
 31
0.0
  0
LINE
  5
339
330
31F
100
AcDbEntity
  8
ﾚｲﾔ1
  6
Continuous
100
AcDbLine
 10
-106.694988
 20
53.944487
 30
0.0
 11
-106.194988
 21
53.394487
 31
0.0
  0
LINE
  5
33A
330
31F
100
AcDbEntity
  8
ﾚｲﾔ1
  6
Continuous
100
AcDbLine
 10
-106.194988
 20
53.394487
 30
0.0
 11
-105.694988
 21
52.744487
 31
0.0
  0
LINE
  5
33B
330
31F
100
AcDbEntity
  8
ﾚｲﾔ1
  6
Continuous
100
AcDbLine
 10
-105.694988
 20
52.744487
 30
0.0
 11
-104.444988
 21
51.04448699999999
 31
0.0
  0
ENDBLK
  5
33C
330
31F
100
AcDbEntity
  8
0
100
AcDbBlockEnd
  0
BLOCK
  5
33E
330
33D
100
AcDbEntity
  8
0
100
AcDbBlockBegin
  2
*U1
 70
     1
 10
0.0
 20
0.0
 30
0.0
  3
*U1
  1

  0
LINE
  5
33F
330
33D
100
AcDbEntity
  8
ﾚｲﾔ1
  6
Continuous
100
AcDbLine
 10
-137.444988
 20
55.444487
 30
0.0
 11
-137.444988
 21
78.494487
 31
0.0
  0
LINE
  5
340
330
33D
100
AcDbEntity
  8
ﾚｲﾔ1
  6
Continuous
100
AcDbLine
 10
-137.444988
 20
78.494487
 30
0.0
 11
-135.444988
 21
80.494487
 31
0.0
  0
LINE
  5
341
330
33D
100
AcDbEntity
  8
ﾚｲﾔ1
  6
Continuous
100
AcDbLine
 10
-135.444988
 20
80.494487
 30
0.0
 11
-111.444988
 21
80.494487
 31
0.0
  0
LINE
  5
342
330
33D
100
AcDbEntity
  8
ﾚｲﾔ1
  6
Continuous
100
AcDbLine
 10
-111.444988
 20
80.494487
 30
0.0
 11
-109.444988
 21
78.494487
 31
0.0
  0
LINE
  5
343
330
33D
100
AcDbEntity
  8
ﾚｲﾔ1
  6
Continuous
100
AcDbLine
 10
-109.444988
 20
78.494487
 30
0.0
 11
-109.444988
 21
55.394487
 31
0.0
  0
ENDBLK
  5
344
330
33D
100
AcDbEntity
  8
0
100
AcDbBlockEnd
  0
BLOCK
  5
346
330
345
100
AcDbEntity
  8
0
100
AcDbBlockBegin
  2
*U2
 70
     1
 10
0.0
 20
0.0
 30
0.0
  3
*U2
  1

  0
LINE
  5
347
330
345
100
AcDbEntity
  8
補助線
100
AcDbLine
 10
-118.444988
 20
12.494487
 30
0.0
 11
-128.444988
 21
12.494487
 31
0.0
  0
LINE
  5
348
330
345
100
AcDbEntity
  8
補助線
100
AcDbLine
 10
-123.444988
 20
17.494487
 30
0.0
 11
-123.444988
 21
7.494486999999999
 31
0.0
  0
ENDBLK
  5
349
330
345
100
AcDbEntity
  8
0
100
AcDbBlockEnd
  0
BLOCK
  5
34B
330
34A
100
AcDbEntity
  8
0
100
AcDbBlockBegin
  2
*U3
 70
     1
 10
0.0
 20
0.0
 30
0.0
  3
*U3
  1

  0
LINE
  5
34C
330
34A
100
AcDbEntity
  8
補助線
100
AcDbLine
 10
-118.444988
 20
12.494487
 30
0.0
 11
-128.444988
 21
12.494487
 31
0.0
  0
LINE
  5
34D
330
34A
100
AcDbEntity
  8
補助線
100
AcDbLine
 10
-123.444988
 20
17.494487
 30
0.0
 11
-123.444988
 21
7.494486999999999
 31
0.0
  0
ENDBLK
  5
34E
330
34A
100
AcDbEntity
  8
0
100
AcDbBlockEnd
  0
BLOCK
  5
350
330
34F
100
AcDbEntity
  8
0
100
AcDbBlockBegin
  2
*D4
 70
     1
 10
0.0
 20
0.0
 30
0.0
  3
*D4
  1

  0
LINE
  5
351
330
34F
100
AcDbEntity
  8
寸法
  6
ByBlock
 62
     0
100
AcDbLine
 10
-27.863183
 20
32.931528
 30
0.0
 11
-27.863183
 21
94.196237
 31
0.0
  0
LINE
  5
352
330
34F
100
AcDbEntity
  8
寸法
  6
ByBlock
 62
     0
100
AcDbLine
 10
-12.863183
 20
52.408523
 30
0.0
 11
-12.863183
 21
94.196237
 31
0.0
  0
LINE
  5
353
330
34F
100
AcDbEntity
  8
寸法
  6
ByBlock
 62
     0
100
AcDbLine
 10
-27.863183
 20
94.196237
 30
0.0
 11
-12.863183
 21
94.196237
 31
0.0
  0
LWPOLYLINE
  5
354
330
34F
100
AcDbEntity
  8
寸法
  6
ByBlock
 62
     0
100
AcDbPolyline
 90
        3
 70
     0
 43
0.0
 10
-24.965405
 20
94.97269499999999
 10
-27.863183
 20
94.196237
 10
-24.965405
 20
93.41978
  0
LWPOLYLINE
  5
359
330
34F
100
AcDbEntity
  8
寸法
  6
ByBlock
 62
     0
100
AcDbPolyline
 90
        3
 70
     0
 43
0.0
 10
-15.76096
 20
93.41978
 10
-12.863183
 20
94.196237
 10
-15.76096
 20
94.97269499999999
  0
TEXT
  5
35E
330
34F
100
AcDbEntity
  8
寸法
  6
Continuous
 62
     0
100
AcDbText
 10
-24.575
 20
94.55
 30
0.0
 40
5.0
  1
15
 41
1.759999999999999
  7
TEXTSTYLE02
100
AcDbText
  0
ENDBLK
  5
35F
330
34F
100
AcDbEntity
  8
0
100
AcDbBlockEnd
  0
BLOCK
  5
361
330
360
100
AcDbEntity
  8
0
100
AcDbBlockBegin
  2
*D5
 70
     1
 10
0.0
 20
0.0
 30
0.0
  3
*D5
  1

  0
LINE
  5
362
330
360
100
AcDbEntity
  8
寸法
  6
ByBlock
 62
     0
100
AcDbLine
 10
102.136818
 20
80.560035
 30
0.0
 11
102.136818
 21
94.196237
 31
0.0
  0
LINE
  5
363
330
360
100
AcDbEntity
  8
寸法
  6
ByBlock
 62
     0
100
AcDbLine
 10
-12.863183
 20
94.196237
 30
0.0
 11
102.136818
 21
94.196237
 31
0.0
  0
LWPOLYLINE
  5
364
330
360
100
AcDbEntity
  8
寸法
  6
ByBlock
 62
     0
100
AcDbPolyline
 90
        3
 70
     0
 43
0.0
 10
-9.965405
 20
94.97269499999999
 10
-12.863183
 20
94.196237
 10
-9.965405
 20
93.41978
  0
LWPOLYLINE
  5
369
330
360
100
AcDbEntity
  8
寸法
  6
ByBlock
 62
     0
100
AcDbPolyline
 90
        3
 70
     0
 43
0.0
 10
99.23904
 20
93.41978
 10
102.136818
 20
94.196237
 10
99.23904
 20
94.97269499999999
  0
TEXT
  5
36E
330
360
100
AcDbEntity
  8
寸法
  6
Continuous
 62
     0
100
AcDbText
 10
38.225
 20
94.55
 30
0.0
 40
5.0
  1
115
 41
1.759999999999999
  7
TEXTSTYLE02
100
AcDbText
  0
ENDBLK
  5
36F
330
360
100
AcDbEntity
  8
0
100
AcDbBlockEnd
  0
BLOCK
  5
371
330
370
100
AcDbEntity
  8
0
100
AcDbBlockBegin
  2
*D6
 70
     1
 10
0.0
 20
0.0
 30
0.0
  3
*D6
  1

  0
LINE
  5
372
330
370
100
AcDbEntity
  8
寸法
  6
ByBlock
 62
     0
100
AcDbLine
 10
127.136818
 20
54.660295
 30
0.0
 11
127.136818
 21
94.196237
 31
0.0
  0
LINE
  5
373
330
370
100
AcDbEntity
  8
寸法
  6
ByBlock
 62
     0
100
AcDbLine
 10
102.136818
 20
94.196237
 30
0.0
 11
127.136818
 21
94.196237
 31
0.0
  0
LWPOLYLINE
  5
374
330
370
100
AcDbEntity
  8
寸法
  6
ByBlock
 62
     0
100
AcDbPolyline
 90
        3
 70
     0
 43
0.0
 10
105.034595
 20
94.97269499999999
 10
102.136818
 20
94.196237
 10
105.034595
 20
93.41978
  0
LWPOLYLINE
  5
379
330
370
100
AcDbEntity
  8
寸法
  6
ByBlock
 62
     0
100
AcDbPolyline
 90
        3
 70
     0
 43
0.0
 10
124.23904
 20
93.41978
 10
127.136818
 20
94.196237
 10
124.23904
 20
94.97269499999999
  0
TEXT
  5
37E
330
370
100
AcDbEntity
  8
寸法
  6
Continuous
 62
     0
100
AcDbText
 10
110.425
 20
94.55
 30
0.0
 40
5.0
  1
25
 41
1.759999999999999
  7
TEXTSTYLE02
100
AcDbText
  0
ENDBLK
  5
37F
330
370
100
AcDbEntity
  8
0
100
AcDbBlockEnd
  0
BLOCK
  5
381
330
380
100
AcDbEntity
  8
0
100
AcDbBlockBegin
  2
*D7
 70
     1
 10
0.0
 20
0.0
 30
0.0
  3
*D7
  1

  0
LINE
  5
382
330
380
100
AcDbEntity
  8
寸法
  6
ByBlock
 62
     0
100
AcDbLine
 10
-27.863183
 20
92.60288
 30
0.0
 11
-27.863183
 21
110.617932
 31
0.0
  0
LINE
  5
383
330
380
100
AcDbEntity
  8
寸法
  6
ByBlock
 62
     0
100
AcDbLine
 10
127.136818
 20
92.60288
 30
0.0
 11
127.136818
 21
110.617932
 31
0.0
  0
LINE
  5
384
330
380
100
AcDbEntity
  8
寸法
  6
ByBlock
 62
     0
100
AcDbLine
 10
-27.863183
 20
110.617932
 30
0.0
 11
127.136818
 21
110.617932
 31
0.0
  0
LWPOLYLINE
  5
385
330
380
100
AcDbEntity
  8
寸法
  6
ByBlock
 62
     0
100
AcDbPolyline
 90
        3
 70
     0
 43
0.0
 10
-24.965405
 20
111.39439
 10
-27.863183
 20
110.617932
 10
-24.965405
 20
109.841475
  0
LWPOLYLINE
  5
38A
330
380
100
AcDbEntity
  8
寸法
  6
ByBlock
 62
     0
100
AcDbPolyline
 90
        3
 70
     0
 43
0.0
 10
124.23904
 20
109.841475
 10
127.136818
 20
110.617932
 10
124.23904
 20
111.39439
  0
TEXT
  5
38F
330
380
100
AcDbEntity
  8
寸法
  6
Continuous
 62
     0
100
AcDbText
 10
43.225
 20
110.975
 30
0.0
 40
5.0
  1
155
 41
1.759999999999999
  7
TEXTSTYLE02
100
AcDbText
  0
ENDBLK
  5
390
330
380
100
AcDbEntity
  8
0
100
AcDbBlockEnd
  0
BLOCK
  5
392
330
391
100
AcDbEntity
  8
0
100
AcDbBlockBegin
  2
*D8
 70
     1
 10
0.0
 20
0.0
 30
0.0
  3
*D8
  1

  0
LINE
  5
393
330
391
100
AcDbEntity
  8
寸法
  6
ByBlock
 62
     0
100
AcDbLine
 10
125.997235
 20
55.494487
 30
0.0
 11
152.6268
 21
55.494487
 31
0.0
  0
LINE
  5
394
330
391
100
AcDbEntity
  8
寸法
  6
ByBlock
 62
     0
100
AcDbLine
 10
125.81828
 20
-30.505512
 30
0.0
 11
152.6268
 21
-30.505512
 31
0.0
  0
LINE
  5
395
330
391
100
AcDbEntity
  8
寸法
  6
ByBlock
 62
     0
100
AcDbLine
 10
152.6268
 20
55.494487
 30
0.0
 11
152.6268
 21
-30.505512
 31
0.0
  0
LWPOLYLINE
  5
396
330
391
100
AcDbEntity
  8
寸法
  6
ByBlock
 62
     0
100
AcDbPolyline
 90
        3
 70
     0
 43
0.0
 10
153.403257
 20
52.59670999999999
 10
152.6268
 20
55.494487
 10
151.8503429999999
 20
52.59670999999999
  0
LWPOLYLINE
  5
39B
330
391
100
AcDbEntity
  8
寸法
  6
ByBlock
 62
     0
100
AcDbPolyline
 90
        3
 70
     0
 43
0.0
 10
151.8503429999999
 20
-27.607735
 10
152.6268
 20
-30.505512
 10
153.403257
 20
-27.607735
  0
TEXT
  5
3A0
330
391
100
AcDbEntity
  8
寸法
  6
Continuous
 62
     0
100
AcDbText
 10
152.25
 20
8.275
 30
0.0
 40
5.0
  1
86
 50
90.0
 41
1.759999999999999
  7
TEXTSTYLE02
100
AcDbText
  0
ENDBLK
  5
3A1
330
391
100
AcDbEntity
  8
0
100
AcDbBlockEnd
  0
BLOCK
  5
3A3
330
3A2
100
AcDbEntity
  8
0
100
AcDbBlockBegin
  2
*D9
 70
     1
 10
0.0
 20
0.0
 30
0.0
  3
*D9
  1

  0
LINE
  5
3A4
330
3A2
100
AcDbEntity
  8
寸法
  6
ByBlock
 62
     0
100
AcDbLine
 10
-26.850882
 20
33.494487
 30
0.0
 11
-47.01730999999999
 21
33.494487
 31
0.0
  0
LINE
  5
3A5
330
3A2
100
AcDbEntity
  8
寸法
  6
ByBlock
 62
     0
100
AcDbLine
 10
-26.850882
 20
-8.505512
 30
0.0
 11
-47.01730999999999
 21
-8.505512
 31
0.0
  0
LINE
  5
3A6
330
3A2
100
AcDbEntity
  8
寸法
  6
ByBlock
 62
     0
100
AcDbLine
 10
-47.01730999999999
 20
33.494487
 30
0.0
 11
-47.01730999999999
 21
-8.505512
 31
0.0
  0
LWPOLYLINE
  5
3A7
330
3A2
100
AcDbEntity
  8
寸法
  6
ByBlock
 62
     0
100
AcDbPolyline
 90
        3
 70
     0
 43
0.0
 10
-46.240852
 20
30.59671
 10
-47.01730999999999
 20
33.494487
 10
-47.793768
 20
30.59671
  0
LWPOLYLINE
  5
3AC
330
3A2
100
AcDbEntity
  8
寸法
  6
ByBlock
 62
     0
100
AcDbPolyline
 90
        3
 70
     0
 43
0.0
 10
-47.793768
 20
-5.607734999999999
 10
-47.01730999999999
 20
-8.505512
 10
-46.240852
 20
-5.607734999999999
  0
TEXT
  5
3B1
330
3A2
100
AcDbEntity
  8
寸法
  6
Continuous
 62
     0
100
AcDbText
 10
-47.4
 20
8.275
 30
0.0
 40
5.0
  1
42
 50
90.0
 41
1.759999999999999
  7
TEXTSTYLE02
100
AcDbText
  0
ENDBLK
  5
3B2
330
3A2
100
AcDbEntity
  8
0
100
AcDbBlockEnd
  0
BLOCK
  5
3B4
330
3B3
100
AcDbEntity
  8
0
100
AcDbBlockBegin
  2
*U10
 70
     1
 10
0.0
 20
0.0
 30
0.0
  3
*U10
  1

  0
LWPOLYLINE
  5
3B5
330
3B3
100
AcDbEntity
  8
寸法
100
AcDbPolyline
 90
        3
 70
     0
 43
0.0
 10
-121.714705
 20
82.945225
 10
-123.444988
 20
80.494487
 10
-120.72115
 20
81.75174799999998
  0
LINE
  5
3BA
330
3B3
100
AcDbEntity
  8
寸法
100
AcDbLine
 10
-123.444988
 20
80.494487
 30
0.0
 11
-91.143588
 21
107.38498
 31
0.0
  0
ENDBLK
  5
3BB
330
3B3
100
AcDbEntity
  8
0
100
AcDbBlockEnd
  0
BLOCK
  5
963
330
962
100
AcDbEntity
  8
0
100
AcDbBlockBegin
  2
_Open30
 70
     0
 10
0.0
 20
0.0
 30
0.0
  3
_Open30
  1

  0
LINE
  5
964
330
962
100
AcDbEntity
  8
下図
 62
     0
370
    -2
100
AcDbLine
 10
-1.0
 20
0.26794919
 30
0.0
 11
0.0
 21
0.0
 31
0.0
  0
LINE
  5
965
330
962
100
AcDbEntity
  8
下図
 62
     0
370
    -2
100
AcDbLine
 10
0.0
 20
0.0
 30
0.0
 11
-1.0
 21
-0.26794919
 31
0.0
  0
LINE
  5
966
330
962
100
AcDbEntity
  8
下図
 62
     0
370
    -2
100
AcDbLine
 10
0.0
 20
0.0
 30
0.0
 11
-1.0
 21
0.0
 31
0.0
  0
ENDBLK
  5
967
330
962
100
AcDbEntity
  8
0
100
AcDbBlockEnd
  0
ENDSEC
  0
SECTION
  2
ENTITIES
  0
INSERT
  5
424
330
1E
100
AcDbEntity
  8
ﾚｲﾔ1
100
AcDbBlockReference
  2
*U0
 10
717.1734621082921
 20
-56.15617165663205
 30
0.0
  0
INSERT
  5
425
330
1E
100
AcDbEntity
  8
ﾚｲﾔ1
100
AcDbBlockReference
  2
*U1
 10
717.1734621082921
 20
-56.15617165663205
 30
0.0
  0
LINE
  5
426
330
1E
100
AcDbEntity
  8
ﾚｲﾔ1
  6
Continuous
100
AcDbLine
 10
579.7284741082922
 20
22.33831534336795
 30
0.0
 11
607.7284741082922
 21
22.33831534336795
 31
0.0
  0
LINE
  5
427
330
1E
100
AcDbEntity
  8
ﾚｲﾔ1
  6
DASHDOT
 62
     9
100
AcDbLine
 10
593.7284741082922
 20
38.28831534336794
 30
0.0
 11
593.7284741082922
 21
-104.9116836566321
 31
0.0
  0
LINE
  5
428
330
1E
100
AcDbEntity
  8
ﾚｲﾔ1
  6
Continuous
100
AcDbLine
 10
691.3102791082921
 20
-22.66168465663205
 30
0.0
 11
691.3102791082921
 21
-43.66168465663205
 31
0.0
  0
LINE
  5
429
330
1E
100
AcDbEntity
  8
ﾚｲﾔ1
  6
Continuous
100
AcDbLine
 10
691.3102791082921
 20
-64.66168365663205
 30
0.0
 11
691.3102791082921
 21
-43.66168465663205
 31
0.0
  0
LINE
  5
42A
330
1E
100
AcDbEntity
  8
ﾚｲﾔ1
  6
Continuous
100
AcDbLine
 10
689.3102791082921
 20
-43.66168465663205
 30
0.0
 11
689.3102791082921
 21
-23.76694965663206
 31
0.0
  0
LINE
  5
42B
330
1E
100
AcDbEntity
  8
ﾚｲﾔ1
  6
Continuous
100
AcDbLine
 10
689.3102791082921
 20
-23.76694965663206
 30
0.0
 11
691.3102791082921
 21
-22.66168465663205
 31
0.0
  0
LINE
  5
42C
330
1E
100
AcDbEntity
  8
ﾚｲﾔ1
  6
Continuous
100
AcDbLine
 10
691.3102791082921
 20
-22.66168465663205
 30
0.0
 11
704.3102791082921
 21
-22.66168465663205
 31
0.0
  0
LINE
  5
42D
330
1E
100
AcDbEntity
  8
ﾚｲﾔ1
  6
Continuous
100
AcDbLine
 10
689.3102791082921
 20
-43.66168465663205
 30
0.0
 11
689.3102791082921
 21
-63.55641965663205
 31
0.0
  0
LINE
  5
42E
330
1E
100
AcDbEntity
  8
ﾚｲﾔ1
  6
Continuous
100
AcDbLine
 10
689.3102791082921
 20
-63.55641965663205
 30
0.0
 11
691.3102791082921
 21
-64.66168365663205
 31
0.0
  0
LINE
  5
42F
330
1E
100
AcDbEntity
  8
ﾚｲﾔ1
  6
Continuous
100
AcDbLine
 10
691.3102791082921
 20
-64.66168365663205
 30
0.0
 11
704.3102791082921
 21
-64.66168365663205
 31
0.0
  0
LINE
  5
430
330
1E
100
AcDbEntity
  8
ﾚｲﾔ1
  6
Continuous
100
AcDbLine
 10
706.3102791082921
 20
-2.211684656632052
 30
0.0
 11
706.3102791082921
 21
-43.66168465663205
 31
0.0
  0
LINE
  5
431
330
1E
100
AcDbEntity
  8
ﾚｲﾔ1
  6
Continuous
100
AcDbLine
 10
706.3102791082921
 20
-85.11168365663205
 30
0.0
 11
706.3102791082921
 21
-43.66168465663205
 31
0.0
  0
LINE
  5
432
330
1E
100
AcDbEntity
  8
ﾚｲﾔ1
  6
Continuous
100
AcDbLine
 10
704.3102791082921
 20
-21.51168465663206
 30
0.0
 11
704.3102791082921
 21
-83.11168365663205
 31
0.0
  0
LINE
  5
433
330
1E
100
AcDbEntity
  8
ﾚｲﾔ1
  6
Continuous
100
AcDbLine
 10
704.3102791082921
 20
-21.51168465663206
 30
0.0
 11
704.3102791082921
 21
-4.211684656632052
 31
0.0
  0
LINE
  5
434
330
1E
100
AcDbEntity
  8
ﾚｲﾔ1
  6
Continuous
100
AcDbLine
 10
704.3102791082921
 20
-4.211684656632052
 30
0.0
 11
706.3102791082921
 21
-2.211684656632052
 31
0.0
  0
LINE
  5
435
330
1E
100
AcDbEntity
  8
ﾚｲﾔ1
  6
Continuous
100
AcDbLine
 10
704.3102791082921
 20
-83.11168365663205
 30
0.0
 11
706.3102791082921
 21
-85.11168365663205
 31
0.0
  0
LINE
  5
436
330
1E
100
AcDbEntity
  8
ﾚｲﾔ1
  6
Continuous
100
AcDbLine
 10
767.3102791082921
 20
-0.6616846566320547
 30
0.0
 11
767.3102791082921
 21
-43.66168465663205
 31
0.0
  0
LINE
  5
437
330
1E
100
AcDbEntity
  8
ﾚｲﾔ1
  6
Continuous
100
AcDbLine
 10
764.3102791082921
 20
-2.211684656632052
 30
0.0
 11
764.3102791082921
 21
-43.66168465663205
 31
0.0
  0
LINE
  5
438
330
1E
100
AcDbEntity
  8
ﾚｲﾔ1
  6
Continuous
100
AcDbLine
 10
764.3102791082921
 20
-2.211684656632052
 30
0.0
 11
764.3102791082921
 21
-43.66168465663205
 31
0.0
  0
LINE
  5
439
330
1E
100
AcDbEntity
  8
ﾚｲﾔ1
  6
Continuous
100
AcDbLine
 10
764.3102791082921
 20
-85.11168365663205
 30
0.0
 11
764.3102791082921
 21
-43.66168465663205
 31
0.0
  0
LINE
  5
43A
330
1E
100
AcDbEntity
  8
ﾚｲﾔ1
  6
Continuous
100
AcDbLine
 10
767.3102791082921
 20
-86.66168365663205
 30
0.0
 11
767.3102791082921
 21
-43.66168465663205
 31
0.0
  0
LINE
  5
43B
330
1E
100
AcDbEntity
  8
ﾚｲﾔ1
  6
Continuous
100
AcDbLine
 10
805.3102791082922
 20
19.73831534336794
 30
0.0
 11
807.3102791082922
 21
21.73831534336794
 31
0.0
  0
LINE
  5
43C
330
1E
100
AcDbEntity
  8
ﾚｲﾔ1
  6
Continuous
100
AcDbLine
 10
807.3102791082922
 20
21.73831534336794
 30
0.0
 11
831.3102801082921
 21
21.73831534336794
 31
0.0
  0
LINE
  5
43D
330
1E
100
AcDbEntity
  8
ﾚｲﾔ1
  6
Continuous
100
AcDbLine
 10
831.3102801082921
 20
21.73831534336794
 30
0.0
 11
833.3102801082921
 21
19.73831534336794
 31
0.0
  0
LINE
  5
43E
330
1E
100
AcDbEntity
  8
ﾚｲﾔ1
  6
Continuous
100
AcDbLine
 10
805.3102791082922
 20
19.73831534336794
 30
0.0
 11
833.3102801082921
 21
19.73831534336794
 31
0.0
  0
LINE
  5
43F
330
1E
100
AcDbEntity
  8
ﾚｲﾔ1
  6
Continuous
100
AcDbLine
 10
805.3102791082922
 20
1.738315343367944
 30
0.0
 11
804.6602791082921
 21
1.488315343367937
 31
0.0
  0
LINE
  5
440
330
1E
100
AcDbEntity
  8
ﾚｲﾔ1
  6
Continuous
100
AcDbLine
 10
804.6602791082921
 20
1.488315343367937
 30
0.0
 11
804.4102791082921
 21
1.388315343367942
 31
0.0
  0
LINE
  5
441
330
1E
100
AcDbEntity
  8
ﾚｲﾔ1
  6
Continuous
100
AcDbLine
 10
804.4102791082921
 20
1.388315343367942
 30
0.0
 11
804.2102791082922
 21
1.288315343367948
 31
0.0
  0
LINE
  5
442
330
1E
100
AcDbEntity
  8
ﾚｲﾔ1
  6
Continuous
100
AcDbLine
 10
804.2102791082922
 20
1.288315343367948
 30
0.0
 11
804.0602791082922
 21
1.188315343367947
 31
0.0
  0
LINE
  5
443
330
1E
100
AcDbEntity
  8
ﾚｲﾔ1
  6
Continuous
100
AcDbLine
 10
804.0602791082922
 20
1.188315343367947
 30
0.0
 11
803.9102791082921
 21
1.138315343367935
 31
0.0
  0
LINE
  5
444
330
1E
100
AcDbEntity
  8
ﾚｲﾔ1
  6
Continuous
100
AcDbLine
 10
803.9102791082921
 20
1.138315343367935
 30
0.0
 11
803.8102791082922
 21
1.088315343367938
 31
0.0
  0
LINE
  5
445
330
1E
100
AcDbEntity
  8
ﾚｲﾔ1
  6
Continuous
100
AcDbLine
 10
803.8102791082922
 20
1.088315343367938
 30
0.0
 11
803.7102791082921
 21
0.9883153433679439
 31
0.0
  0
LINE
  5
446
330
1E
100
AcDbEntity
  8
ﾚｲﾔ1
  6
Continuous
100
AcDbLine
 10
803.7102791082921
 20
0.9883153433679439
 30
0.0
 11
803.6102791082922
 21
0.9383153433679468
 31
0.0
  0
LINE
  5
447
330
1E
100
AcDbEntity
  8
ﾚｲﾔ1
  6
Continuous
100
AcDbLine
 10
803.6102791082922
 20
0.9383153433679468
 30
0.0
 11
803.5102791082921
 21
0.8883153433679425
 31
0.0
  0
LINE
  5
448
330
1E
100
AcDbEntity
  8
ﾚｲﾔ1
  6
Continuous
100
AcDbLine
 10
803.5102791082921
 20
0.8883153433679425
 30
0.0
 11
803.4102791082921
 21
0.7883153433679482
 31
0.0
  0
LINE
  5
449
330
1E
100
AcDbEntity
  8
ﾚｲﾔ1
  6
Continuous
100
AcDbLine
 10
803.4102791082921
 20
0.7883153433679482
 30
0.0
 11
803.3102791082921
 21
0.7383153433679368
 31
0.0
  0
LINE
  5
44A
330
1E
100
AcDbEntity
  8
ﾚｲﾔ1
  6
Continuous
100
AcDbLine
 10
803.3102791082921
 20
0.7383153433679368
 30
0.0
 11
803.2102791082922
 21
0.6883153433679468
 31
0.0
  0
LINE
  5
44B
330
1E
100
AcDbEntity
  8
ﾚｲﾔ1
  6
Continuous
100
AcDbLine
 10
803.2102791082922
 20
0.6883153433679468
 30
0.0
 11
803.1102791082922
 21
0.5883153433679453
 31
0.0
  0
LINE
  5
44C
330
1E
100
AcDbEntity
  8
ﾚｲﾔ1
  6
Continuous
100
AcDbLine
 10
803.1102791082922
 20
0.5883153433679453
 30
0.0
 11
803.0102791082921
 21
0.4883153433679439
 31
0.0
  0
LINE
  5
44D
330
1E
100
AcDbEntity
  8
ﾚｲﾔ1
  6
Continuous
100
AcDbLine
 10
803.0102791082921
 20
0.4883153433679439
 30
0.0
 11
802.9102791082921
 21
0.3883153433679354
 31
0.0
  0
LINE
  5
44E
330
1E
100
AcDbEntity
  8
ﾚｲﾔ1
  6
Continuous
100
AcDbLine
 10
802.9102791082921
 20
0.3883153433679354
 30
0.0
 11
802.8102791082922
 21
0.3383153433679453
 31
0.0
  0
LINE
  5
44F
330
1E
100
AcDbEntity
  8
ﾚｲﾔ1
  6
Continuous
100
AcDbLine
 10
802.8102791082922
 20
0.3383153433679453
 30
0.0
 11
802.7102791082922
 21
0.1883153433679468
 31
0.0
  0
LINE
  5
450
330
1E
100
AcDbEntity
  8
ﾚｲﾔ1
  6
Continuous
100
AcDbLine
 10
802.7102791082922
 20
0.1883153433679468
 30
0.0
 11
802.6102791082922
 21
0.0883153433679453
 31
0.0
  0
LINE
  5
451
330
1E
100
AcDbEntity
  8
ﾚｲﾔ1
  6
Continuous
100
AcDbLine
 10
802.6102791082922
 20
0.0883153433679453
 30
0.0
 11
802.5102791082921
 21
-0.0116846566320561
 31
0.0
  0
LINE
  5
452
330
1E
100
AcDbEntity
  8
ﾚｲﾔ1
  6
Continuous
100
AcDbLine
 10
802.5102791082921
 20
-0.0116846566320561
 30
0.0
 11
802.4102791082921
 21
-0.1116846566320646
 31
0.0
  0
LINE
  5
453
330
1E
100
AcDbEntity
  8
ﾚｲﾔ1
  6
Continuous
100
AcDbLine
 10
802.4102791082921
 20
-0.1116846566320646
 30
0.0
 11
802.3102791082922
 21
-0.2616846566320561
 31
0.0
  0
LINE
  5
454
330
1E
100
AcDbEntity
  8
ﾚｲﾔ1
  6
Continuous
100
AcDbLine
 10
802.2602791082921
 20
-4.011684656632056
 30
0.0
 11
802.4602791082921
 21
-4.061684656632053
 31
0.0
  0
LINE
  5
455
330
1E
100
AcDbEntity
  8
ﾚｲﾔ1
  6
Continuous
100
AcDbLine
 10
802.4602791082921
 20
-4.061684656632053
 30
0.0
 11
802.7102791082922
 21
-4.111684656632058
 31
0.0
  0
LINE
  5
456
330
1E
100
AcDbEntity
  8
ﾚｲﾔ1
  6
Continuous
100
AcDbLine
 10
802.7102791082922
 20
-4.111684656632058
 30
0.0
 11
802.9602791082922
 21
-4.161684656632055
 31
0.0
  0
LINE
  5
457
330
1E
100
AcDbEntity
  8
ﾚｲﾔ1
  6
Continuous
100
AcDbLine
 10
802.9602791082922
 20
-4.161684656632055
 30
0.0
 11
803.2602791082921
 21
-4.211684656632052
 31
0.0
  0
LINE
  5
458
330
1E
100
AcDbEntity
  8
ﾚｲﾔ1
  6
Continuous
100
AcDbLine
 10
803.2602791082921
 20
-4.211684656632052
 30
0.0
 11
803.5602791082922
 21
-4.261684656632063
 31
0.0
  0
LINE
  5
459
330
1E
100
AcDbEntity
  8
ﾚｲﾔ1
  6
Continuous
100
AcDbLine
 10
803.5602791082922
 20
-4.261684656632063
 30
0.0
 11
803.8602791082922
 21
-4.311684656632053
 31
0.0
  0
LINE
  5
45A
330
1E
100
AcDbEntity
  8
ﾚｲﾔ1
  6
Continuous
100
AcDbLine
 10
803.8602791082922
 20
-4.311684656632053
 30
0.0
 11
804.2102791082922
 21
-4.361684656632058
 31
0.0
  0
LINE
  5
45B
330
1E
100
AcDbEntity
  8
ﾚｲﾔ1
  6
Continuous
100
AcDbLine
 10
804.2102791082922
 20
-4.361684656632058
 30
0.0
 11
804.6102791082922
 21
-4.411684656632055
 31
0.0
  0
LINE
  5
45C
330
1E
100
AcDbEntity
  8
ﾚｲﾔ1
  6
Continuous
100
AcDbLine
 10
804.6102791082922
 20
-4.411684656632055
 30
0.0
 11
804.9602791082921
 21
-4.511684656632056
 31
0.0
  0
LINE
  5
45D
330
1E
100
AcDbEntity
  8
ﾚｲﾔ1
  6
Continuous
100
AcDbLine
 10
804.9602791082921
 20
-4.511684656632056
 30
0.0
 11
805.4102791082921
 21
-4.561684656632053
 31
0.0
  0
LINE
  5
45E
330
1E
100
AcDbEntity
  8
ﾚｲﾔ1
  6
Continuous
100
AcDbLine
 10
805.4102791082921
 20
-4.561684656632053
 30
0.0
 11
805.8102791082921
 21
-4.611684656632065
 31
0.0
  0
LINE
  5
45F
330
1E
100
AcDbEntity
  8
ﾚｲﾔ1
  6
Continuous
100
AcDbLine
 10
805.8102791082921
 20
-4.611684656632065
 30
0.0
 11
806.2602791082921
 21
-4.711684656632052
 31
0.0
  0
LINE
  5
460
330
1E
100
AcDbEntity
  8
ﾚｲﾔ1
  6
Continuous
100
AcDbLine
 10
806.2602791082921
 20
-4.711684656632052
 30
0.0
 11
806.7602791082921
 21
-4.761684656632063
 31
0.0
  0
LINE
  5
461
330
1E
100
AcDbEntity
  8
ﾚｲﾔ1
  6
Continuous
100
AcDbLine
 10
806.7602791082921
 20
-4.761684656632063
 30
0.0
 11
807.2602791082921
 21
-4.811684656632053
 31
0.0
  0
LINE
  5
462
330
1E
100
AcDbEntity
  8
ﾚｲﾔ1
  6
Continuous
100
AcDbLine
 10
807.2602791082921
 20
-4.811684656632053
 30
0.0
 11
807.8102791082922
 21
-4.911684656632055
 31
0.0
  0
LINE
  5
463
330
1E
100
AcDbEntity
  8
ﾚｲﾔ1
  6
Continuous
100
AcDbLine
 10
807.8102791082922
 20
-4.911684656632055
 30
0.0
 11
808.3602791082922
 21
-4.961684656632052
 31
0.0
  0
LINE
  5
464
330
1E
100
AcDbEntity
  8
ﾚｲﾔ1
  6
Continuous
100
AcDbLine
 10
808.3602791082922
 20
-4.961684656632052
 30
0.0
 11
808.9102791082921
 21
-5.061684656632053
 31
0.0
  0
LINE
  5
465
330
1E
100
AcDbEntity
  8
ﾚｲﾔ1
  6
Continuous
100
AcDbLine
 10
808.9102791082921
 20
-5.061684656632053
 30
0.0
 11
809.5102791082921
 21
-5.111684656632065
 31
0.0
  0
LINE
  5
466
330
1E
100
AcDbEntity
  8
ﾚｲﾔ1
  6
Continuous
100
AcDbLine
 10
809.5102791082921
 20
-5.111684656632065
 30
0.0
 11
810.1102791082922
 21
-5.161684656632062
 31
0.0
  0
LINE
  5
467
330
1E
100
AcDbEntity
  8
ﾚｲﾔ1
  6
Continuous
100
AcDbLine
 10
810.1102791082922
 20
-5.161684656632062
 30
0.0
 11
810.7602791082921
 21
-5.261684656632056
 31
0.0
  0
LINE
  5
468
330
1E
100
AcDbEntity
  8
ﾚｲﾔ1
  6
Continuous
100
AcDbLine
 10
810.7602791082921
 20
-5.261684656632056
 30
0.0
 11
811.4102791082921
 21
-5.311684656632053
 31
0.0
  0
LINE
  5
469
330
1E
100
AcDbEntity
  8
ﾚｲﾔ1
  6
Continuous
100
AcDbLine
 10
811.4102791082921
 20
-5.311684656632053
 30
0.0
 11
812.0102791082921
 21
-5.411684656632055
 31
0.0
  0
LINE
  5
46A
330
1E
100
AcDbEntity
  8
ﾚｲﾔ1
  6
Continuous
100
AcDbLine
 10
812.0102791082921
 20
-5.411684656632055
 30
0.0
 11
812.7102791082922
 21
-5.461684656632052
 31
0.0
  0
LINE
  5
46B
330
1E
100
AcDbEntity
  8
ﾚｲﾔ1
  6
Continuous
100
AcDbLine
 10
812.7102791082922
 20
-5.461684656632052
 30
0.0
 11
813.3602791082922
 21
-5.511684656632063
 31
0.0
  0
LINE
  5
46C
330
1E
100
AcDbEntity
  8
ﾚｲﾔ1
  6
Continuous
100
AcDbLine
 10
813.3602791082922
 20
-5.511684656632063
 30
0.0
 11
814.0102791082921
 21
-5.561684656632053
 31
0.0
  0
LINE
  5
46D
330
1E
100
AcDbEntity
  8
ﾚｲﾔ1
  6
Continuous
100
AcDbLine
 10
814.0102791082921
 20
-5.561684656632053
 30
0.0
 11
814.6602791082921
 21
-5.611684656632058
 31
0.0
  0
LINE
  5
46E
330
1E
100
AcDbEntity
  8
ﾚｲﾔ1
  6
Continuous
100
AcDbLine
 10
814.6602791082921
 20
-5.611684656632058
 30
0.0
 11
815.3102791082922
 21
-5.661684656632055
 31
0.0
  0
LINE
  5
46F
330
1E
100
AcDbEntity
  8
ﾚｲﾔ1
  6
Continuous
100
AcDbLine
 10
815.3102791082922
 20
-5.661684656632055
 30
0.0
 11
816.0102791082921
 21
-5.711684656632052
 31
0.0
  0
LINE
  5
470
330
1E
100
AcDbEntity
  8
ﾚｲﾔ1
  6
Continuous
100
AcDbLine
 10
816.0102791082921
 20
-5.711684656632052
 30
0.0
 11
816.6602791082921
 21
-5.761684656632056
 31
0.0
  0
LINE
  5
471
330
1E
100
AcDbEntity
  8
ﾚｲﾔ1
  6
Continuous
100
AcDbLine
 10
816.6602791082921
 20
-5.761684656632056
 30
0.0
 11
817.3102801082921
 21
-5.761684656632056
 31
0.0
  0
LINE
  5
472
330
1E
100
AcDbEntity
  8
ﾚｲﾔ1
  6
Continuous
100
AcDbLine
 10
817.3102801082921
 20
-5.761684656632056
 30
0.0
 11
817.9602801082922
 21
-5.761684656632056
 31
0.0
  0
LINE
  5
473
330
1E
100
AcDbEntity
  8
ﾚｲﾔ1
  6
Continuous
100
AcDbLine
 10
817.9602801082922
 20
-5.761684656632056
 30
0.0
 11
818.6102801082922
 21
-5.761684656632056
 31
0.0
  0
LINE
  5
474
330
1E
100
AcDbEntity
  8
ﾚｲﾔ1
  6
Continuous
100
AcDbLine
 10
818.6102801082922
 20
-5.761684656632056
 30
0.0
 11
819.3102801082921
 21
-5.761684656632056
 31
0.0
  0
LINE
  5
475
330
1E
100
AcDbEntity
  8
ﾚｲﾔ1
  6
Continuous
100
AcDbLine
 10
819.3102801082921
 20
-5.761684656632056
 30
0.0
 11
819.9602801082922
 21
-5.761684656632056
 31
0.0
  0
LINE
  5
476
330
1E
100
AcDbEntity
  8
ﾚｲﾔ1
  6
Continuous
100
AcDbLine
 10
819.9602801082922
 20
-5.761684656632056
 30
0.0
 11
820.6102801082922
 21
-5.761684656632056
 31
0.0
  0
LINE
  5
477
330
1E
100
AcDbEntity
  8
ﾚｲﾔ1
  6
Continuous
100
AcDbLine
 10
820.6102801082922
 20
-5.761684656632056
 30
0.0
 11
821.2602801082921
 21
-5.761684656632056
 31
0.0
  0
LINE
  5
478
330
1E
100
AcDbEntity
  8
ﾚｲﾔ1
  6
Continuous
100
AcDbLine
 10
821.2602801082921
 20
-5.761684656632056
 30
0.0
 11
821.9102801082921
 21
-5.761684656632056
 31
0.0
  0
LINE
  5
479
330
1E
100
AcDbEntity
  8
ﾚｲﾔ1
  6
Continuous
100
AcDbLine
 10
821.9102801082921
 20
-5.761684656632056
 30
0.0
 11
822.6102801082922
 21
-5.711684656632052
 31
0.0
  0
LINE
  5
47A
330
1E
100
AcDbEntity
  8
ﾚｲﾔ1
  6
Continuous
100
AcDbLine
 10
822.6102801082922
 20
-5.711684656632052
 30
0.0
 11
823.2602801082921
 21
-5.661684656632055
 31
0.0
  0
LINE
  5
47B
330
1E
100
AcDbEntity
  8
ﾚｲﾔ1
  6
Continuous
100
AcDbLine
 10
823.2602801082921
 20
-5.661684656632055
 30
0.0
 11
823.9102801082921
 21
-5.611684656632058
 31
0.0
  0
LINE
  5
47C
330
1E
100
AcDbEntity
  8
ﾚｲﾔ1
  6
Continuous
100
AcDbLine
 10
823.9102801082921
 20
-5.611684656632058
 30
0.0
 11
824.5602801082921
 21
-5.561684656632053
 31
0.0
  0
LINE
  5
47D
330
1E
100
AcDbEntity
  8
ﾚｲﾔ1
  6
Continuous
100
AcDbLine
 10
824.5602801082921
 20
-5.561684656632053
 30
0.0
 11
825.2102801082922
 21
-5.511684656632063
 31
0.0
  0
LINE
  5
47E
330
1E
100
AcDbEntity
  8
ﾚｲﾔ1
  6
Continuous
100
AcDbLine
 10
825.2102801082922
 20
-5.511684656632063
 30
0.0
 11
825.9102801082921
 21
-5.461684656632052
 31
0.0
  0
LINE
  5
47F
330
1E
100
AcDbEntity
  8
ﾚｲﾔ1
  6
Continuous
100
AcDbLine
 10
825.9102801082921
 20
-5.461684656632052
 30
0.0
 11
826.5602801082921
 21
-5.411684656632055
 31
0.0
  0
LINE
  5
480
330
1E
100
AcDbEntity
  8
ﾚｲﾔ1
  6
Continuous
100
AcDbLine
 10
826.5602801082921
 20
-5.411684656632055
 30
0.0
 11
827.1602801082921
 21
-5.311684656632053
 31
0.0
  0
LINE
  5
481
330
1E
100
AcDbEntity
  8
ﾚｲﾔ1
  6
Continuous
100
AcDbLine
 10
827.1602801082921
 20
-5.311684656632053
 30
0.0
 11
827.8102801082921
 21
-5.261684656632056
 31
0.0
  0
LINE
  5
482
330
1E
100
AcDbEntity
  8
ﾚｲﾔ1
  6
Continuous
100
AcDbLine
 10
827.8102801082921
 20
-5.261684656632056
 30
0.0
 11
828.4102801082921
 21
-5.161684656632062
 31
0.0
  0
LINE
  5
483
330
1E
100
AcDbEntity
  8
ﾚｲﾔ1
  6
Continuous
100
AcDbLine
 10
828.4102801082921
 20
-5.161684656632062
 30
0.0
 11
829.0602801082921
 21
-5.111684656632065
 31
0.0
  0
LINE
  5
484
330
1E
100
AcDbEntity
  8
ﾚｲﾔ1
  6
Continuous
100
AcDbLine
 10
829.0602801082921
 20
-5.111684656632065
 30
0.0
 11
829.6102801082922
 21
-5.061684656632053
 31
0.0
  0
LINE
  5
485
330
1E
100
AcDbEntity
  8
ﾚｲﾔ1
  6
Continuous
100
AcDbLine
 10
829.6102801082922
 20
-5.061684656632053
 30
0.0
 11
830.2102801082922
 21
-4.961684656632052
 31
0.0
  0
LINE
  5
486
330
1E
100
AcDbEntity
  8
ﾚｲﾔ1
  6
Continuous
100
AcDbLine
 10
830.2102801082922
 20
-4.961684656632052
 30
0.0
 11
830.7602801082921
 21
-4.911684656632055
 31
0.0
  0
LINE
  5
487
330
1E
100
AcDbEntity
  8
ﾚｲﾔ1
  6
Continuous
100
AcDbLine
 10
830.7602801082921
 20
-4.911684656632055
 30
0.0
 11
831.2602801082921
 21
-4.811684656632053
 31
0.0
  0
LINE
  5
488
330
1E
100
AcDbEntity
  8
ﾚｲﾔ1
  6
Continuous
100
AcDbLine
 10
831.2602801082921
 20
-4.811684656632053
 30
0.0
 11
831.7602801082921
 21
-4.761684656632063
 31
0.0
  0
LINE
  5
489
330
1E
100
AcDbEntity
  8
ﾚｲﾔ1
  6
Continuous
100
AcDbLine
 10
831.7602801082921
 20
-4.761684656632063
 30
0.0
 11
832.2602801082921
 21
-4.711684656632052
 31
0.0
  0
LINE
  5
48A
330
1E
100
AcDbEntity
  8
ﾚｲﾔ1
  6
Continuous
100
AcDbLine
 10
832.2602801082921
 20
-4.711684656632052
 30
0.0
 11
832.7102801082922
 21
-4.611684656632065
 31
0.0
  0
LINE
  5
48B
330
1E
100
AcDbEntity
  8
ﾚｲﾔ1
  6
Continuous
100
AcDbLine
 10
832.7102801082922
 20
-4.611684656632065
 30
0.0
 11
833.1102801082922
 21
-4.561684656632053
 31
0.0
  0
LINE
  5
48C
330
1E
100
AcDbEntity
  8
ﾚｲﾔ1
  6
Continuous
100
AcDbLine
 10
833.1102801082922
 20
-4.561684656632053
 30
0.0
 11
833.5602801082921
 21
-4.511684656632056
 31
0.0
  0
LINE
  5
48D
330
1E
100
AcDbEntity
  8
ﾚｲﾔ1
  6
Continuous
100
AcDbLine
 10
833.5602801082921
 20
-4.511684656632056
 30
0.0
 11
833.9602801082922
 21
-4.411684656632055
 31
0.0
  0
LINE
  5
48E
330
1E
100
AcDbEntity
  8
ﾚｲﾔ1
  6
Continuous
100
AcDbLine
 10
833.9602801082922
 20
-4.411684656632055
 30
0.0
 11
834.3102801082921
 21
-4.361684656632058
 31
0.0
  0
LINE
  5
48F
330
1E
100
AcDbEntity
  8
ﾚｲﾔ1
  6
Continuous
100
AcDbLine
 10
834.3102801082921
 20
-4.361684656632058
 30
0.0
 11
834.6602801082921
 21
-4.311684656632053
 31
0.0
  0
LINE
  5
490
330
1E
100
AcDbEntity
  8
ﾚｲﾔ1
  6
Continuous
100
AcDbLine
 10
834.6602801082921
 20
-4.311684656632053
 30
0.0
 11
834.9602801082922
 21
-4.261684656632063
 31
0.0
  0
LINE
  5
491
330
1E
100
AcDbEntity
  8
ﾚｲﾔ1
  6
Continuous
100
AcDbLine
 10
834.9602801082922
 20
-4.261684656632063
 30
0.0
 11
835.2602801082921
 21
-4.211684656632052
 31
0.0
  0
LINE
  5
492
330
1E
100
AcDbEntity
  8
ﾚｲﾔ1
  6
Continuous
100
AcDbLine
 10
835.2602801082921
 20
-4.211684656632052
 30
0.0
 11
835.5602801082921
 21
-4.161684656632055
 31
0.0
  0
LINE
  5
493
330
1E
100
AcDbEntity
  8
ﾚｲﾔ1
  6
Continuous
100
AcDbLine
 10
835.5602801082921
 20
-4.161684656632055
 30
0.0
 11
835.8102801082921
 21
-4.111684656632058
 31
0.0
  0
LINE
  5
494
330
1E
100
AcDbEntity
  8
ﾚｲﾔ1
  6
Continuous
100
AcDbLine
 10
836.8102801082921
 20
-0.9116846566320547
 30
0.0
 11
836.7102801082922
 21
-0.8116846566320532
 31
0.0
  0
LINE
  5
495
330
1E
100
AcDbEntity
  8
ﾚｲﾔ1
  6
Continuous
100
AcDbLine
 10
836.7102801082922
 20
-0.8116846566320532
 30
0.0
 11
836.6102801082922
 21
-0.6616846566320547
 31
0.0
  0
LINE
  5
496
330
1E
100
AcDbEntity
  8
ﾚｲﾔ1
  6
Continuous
100
AcDbLine
 10
836.6102801082922
 20
-0.6616846566320547
 30
0.0
 11
836.5102801082921
 21
-0.5116846566320632
 31
0.0
  0
LINE
  5
497
330
1E
100
AcDbEntity
  8
ﾚｲﾔ1
  6
Continuous
100
AcDbLine
 10
836.5102801082921
 20
-0.5116846566320632
 30
0.0
 11
836.4102801082921
 21
-0.4116846566320547
 31
0.0
  0
LINE
  5
498
330
1E
100
AcDbEntity
  8
ﾚｲﾔ1
  6
Continuous
100
AcDbLine
 10
836.4102801082921
 20
-0.4116846566320547
 30
0.0
 11
836.3102801082921
 21
-0.2616846566320561
 31
0.0
  0
LINE
  5
499
330
1E
100
AcDbEntity
  8
ﾚｲﾔ1
  6
Continuous
100
AcDbLine
 10
836.3102801082921
 20
-0.2616846566320561
 30
0.0
 11
836.2102801082922
 21
-0.1116846566320646
 31
0.0
  0
LINE
  5
49A
330
1E
100
AcDbEntity
  8
ﾚｲﾔ1
  6
Continuous
100
AcDbLine
 10
836.2102801082922
 20
-0.1116846566320646
 30
0.0
 11
836.1102801082922
 21
-0.0116846566320561
 31
0.0
  0
LINE
  5
49B
330
1E
100
AcDbEntity
  8
ﾚｲﾔ1
  6
Continuous
100
AcDbLine
 10
836.1102801082922
 20
-0.0116846566320561
 30
0.0
 11
836.0102801082921
 21
0.0883153433679453
 31
0.0
  0
LINE
  5
49C
330
1E
100
AcDbEntity
  8
ﾚｲﾔ1
  6
Continuous
100
AcDbLine
 10
836.0102801082921
 20
0.0883153433679453
 30
0.0
 11
835.9102801082921
 21
0.1883153433679468
 31
0.0
  0
LINE
  5
49D
330
1E
100
AcDbEntity
  8
ﾚｲﾔ1
  6
Continuous
100
AcDbLine
 10
835.9102801082921
 20
0.1883153433679468
 30
0.0
 11
835.8102801082921
 21
0.3383153433679453
 31
0.0
  0
LINE
  5
49E
330
1E
100
AcDbEntity
  8
ﾚｲﾔ1
  6
Continuous
100
AcDbLine
 10
835.8102801082921
 20
0.3383153433679453
 30
0.0
 11
835.7102801082922
 21
0.3883153433679354
 31
0.0
  0
LINE
  5
49F
330
1E
100
AcDbEntity
  8
ﾚｲﾔ1
  6
Continuous
100
AcDbLine
 10
835.7102801082922
 20
0.3883153433679354
 30
0.0
 11
835.6102801082922
 21
0.4883153433679439
 31
0.0
  0
LINE
  5
4A0
330
1E
100
AcDbEntity
  8
ﾚｲﾔ1
  6
Continuous
100
AcDbLine
 10
835.6102801082922
 20
0.4883153433679439
 30
0.0
 11
835.5102801082921
 21
0.5883153433679453
 31
0.0
  0
LINE
  5
4A1
330
1E
100
AcDbEntity
  8
ﾚｲﾔ1
  6
Continuous
100
AcDbLine
 10
835.5102801082921
 20
0.5883153433679453
 30
0.0
 11
835.4102801082921
 21
0.6883153433679468
 31
0.0
  0
LINE
  5
4A2
330
1E
100
AcDbEntity
  8
ﾚｲﾔ1
  6
Continuous
100
AcDbLine
 10
835.4102801082921
 20
0.6883153433679468
 30
0.0
 11
835.3102801082921
 21
0.7383153433679368
 31
0.0
  0
LINE
  5
4A3
330
1E
100
AcDbEntity
  8
ﾚｲﾔ1
  6
Continuous
100
AcDbLine
 10
835.3102801082921
 20
0.7383153433679368
 30
0.0
 11
835.2102801082922
 21
0.7883153433679482
 31
0.0
  0
LINE
  5
4A4
330
1E
100
AcDbEntity
  8
ﾚｲﾔ1
  6
Continuous
100
AcDbLine
 10
835.2102801082922
 20
0.7883153433679482
 30
0.0
 11
835.1102801082922
 21
0.8883153433679425
 31
0.0
  0
LINE
  5
4A5
330
1E
100
AcDbEntity
  8
ﾚｲﾔ1
  6
Continuous
100
AcDbLine
 10
835.1102801082922
 20
0.8883153433679425
 30
0.0
 11
835.0102801082921
 21
0.9383153433679468
 31
0.0
  0
LINE
  5
4A6
330
1E
100
AcDbEntity
  8
ﾚｲﾔ1
  6
Continuous
100
AcDbLine
 10
835.0102801082921
 20
0.9383153433679468
 30
0.0
 11
834.9102801082921
 21
0.9883153433679439
 31
0.0
  0
LINE
  5
4A7
330
1E
100
AcDbEntity
  8
ﾚｲﾔ1
  6
Continuous
100
AcDbLine
 10
834.9102801082921
 20
0.9883153433679439
 30
0.0
 11
834.8102801082921
 21
1.088315343367938
 31
0.0
  0
LINE
  5
4A8
330
1E
100
AcDbEntity
  8
ﾚｲﾔ1
  6
Continuous
100
AcDbLine
 10
834.8102801082921
 20
1.088315343367938
 30
0.0
 11
834.6602801082921
 21
1.138315343367935
 31
0.0
  0
LINE
  5
4A9
330
1E
100
AcDbEntity
  8
ﾚｲﾔ1
  6
Continuous
100
AcDbLine
 10
834.6602801082921
 20
1.138315343367935
 30
0.0
 11
834.5102801082921
 21
1.188315343367947
 31
0.0
  0
LINE
  5
4AA
330
1E
100
AcDbEntity
  8
ﾚｲﾔ1
  6
Continuous
100
AcDbLine
 10
834.5102801082921
 20
1.188315343367947
 30
0.0
 11
834.3602801082922
 21
1.288315343367948
 31
0.0
  0
LINE
  5
4AB
330
1E
100
AcDbEntity
  8
ﾚｲﾔ1
  6
Continuous
100
AcDbLine
 10
834.3602801082922
 20
1.288315343367948
 30
0.0
 11
834.1602801082921
 21
1.388315343367942
 31
0.0
  0
LINE
  5
4AC
330
1E
100
AcDbEntity
  8
ﾚｲﾔ1
  6
Continuous
100
AcDbLine
 10
834.1602801082921
 20
1.388315343367942
 30
0.0
 11
833.9102801082921
 21
1.488315343367937
 31
0.0
  0
LINE
  5
4AD
330
1E
100
AcDbEntity
  8
ﾚｲﾔ1
  6
Continuous
100
AcDbLine
 10
833.9102801082921
 20
1.488315343367937
 30
0.0
 11
833.3102801082921
 21
1.738315343367944
 31
0.0
  0
LINE
  5
4AE
330
1E
100
AcDbEntity
  8
ﾚｲﾔ1
  6
Continuous
100
AcDbLine
 10
805.3102791082922
 20
1.738315343367944
 30
0.0
 11
812.3102791082922
 21
-0.7616846566320561
 31
0.0
  0
LINE
  5
4AF
330
1E
100
AcDbEntity
  8
ﾚｲﾔ1
  6
Continuous
100
AcDbLine
 10
812.3102791082922
 20
-0.7616846566320561
 30
0.0
 11
815.1102791082922
 21
-1.561684656632053
 31
0.0
  0
LINE
  5
4B0
330
1E
100
AcDbEntity
  8
ﾚｲﾔ1
  6
Continuous
100
AcDbLine
 10
815.1102791082922
 20
-1.561684656632053
 30
0.0
 11
817.9102801082921
 21
-1.961684656632052
 31
0.0
  0
LINE
  5
4B1
330
1E
100
AcDbEntity
  8
ﾚｲﾔ1
  6
Continuous
100
AcDbLine
 10
817.9102801082921
 20
-1.961684656632052
 30
0.0
 11
820.7102801082922
 21
-1.961684656632052
 31
0.0
  0
LINE
  5
4B2
330
1E
100
AcDbEntity
  8
ﾚｲﾔ1
  6
Continuous
100
AcDbLine
 10
820.7102801082922
 20
-1.961684656632052
 30
0.0
 11
823.5102801082921
 21
-1.561684656632053
 31
0.0
  0
LINE
  5
4B3
330
1E
100
AcDbEntity
  8
ﾚｲﾔ1
  6
Continuous
100
AcDbLine
 10
823.5102801082921
 20
-1.561684656632053
 30
0.0
 11
826.3102801082921
 21
-0.7616846566320561
 31
0.0
  0
LINE
  5
4B4
330
1E
100
AcDbEntity
  8
ﾚｲﾔ1
  6
Continuous
100
AcDbLine
 10
826.3102801082921
 20
-0.7616846566320561
 30
0.0
 11
833.3102801082921
 21
1.738315343367944
 31
0.0
  0
LINE
  5
4B5
330
1E
100
AcDbEntity
  8
ﾚｲﾔ1
  6
Continuous
100
AcDbLine
 10
805.3102791082922
 20
1.738315343367944
 30
0.0
 11
805.3102791082922
 21
19.73831534336794
 31
0.0
  0
LINE
  5
4B6
330
1E
100
AcDbEntity
  8
ﾚｲﾔ1
  6
Continuous
100
AcDbLine
 10
833.3102801082921
 20
19.73831534336794
 30
0.0
 11
833.3102801082921
 21
1.738315343367944
 31
0.0
  0
LINE
  5
4B7
330
1E
100
AcDbEntity
  8
ﾚｲﾔ1
  6
DASHDOT
 62
     9
100
AcDbLine
 10
819.3102801082921
 20
22.43831534336795
 30
0.0
 11
819.3102801082921
 21
-11.56168465663205
 31
0.0
  0
LINE
  5
4B8
330
1E
100
AcDbEntity
  8
ﾚｲﾔ1
  6
Continuous
100
AcDbLine
 10
837.0602801082921
 20
-3.761684656632056
 30
0.0
 11
837.1602801082921
 21
-3.711684656632052
 31
0.0
  0
LINE
  5
4B9
330
1E
100
AcDbEntity
  8
ﾚｲﾔ1
  6
Continuous
100
AcDbLine
 10
837.1602801082921
 20
-3.711684656632052
 30
0.0
 11
837.2602801082921
 21
-3.661684656632055
 31
0.0
  0
LINE
  5
4BA
330
1E
100
AcDbEntity
  8
ﾚｲﾔ1
  6
Continuous
100
AcDbLine
 10
837.2602801082921
 20
-3.661684656632055
 30
0.0
 11
837.3102801082921
 21
-3.611684656632058
 31
0.0
  0
LINE
  5
4BB
330
1E
100
AcDbEntity
  8
ﾚｲﾔ1
  6
Continuous
100
AcDbLine
 10
837.3102801082921
 20
-3.611684656632058
 30
0.0
 11
837.3602801082922
 21
-3.561684656632053
 31
0.0
  0
LINE
  5
4BC
330
1E
100
AcDbEntity
  8
ﾚｲﾔ1
  6
Continuous
100
AcDbLine
 10
837.3602801082922
 20
-3.561684656632053
 30
0.0
 11
837.4602801082922
 21
-3.511684656632063
 31
0.0
  0
LINE
  5
4BD
330
1E
100
AcDbEntity
  8
ﾚｲﾔ1
  6
Continuous
100
AcDbLine
 10
837.4602801082922
 20
-3.511684656632063
 30
0.0
 11
837.5102801082921
 21
-3.411684656632055
 31
0.0
  0
LINE
  5
4BE
330
1E
100
AcDbEntity
  8
ﾚｲﾔ1
  6
Continuous
100
AcDbLine
 10
837.5102801082921
 20
-3.411684656632055
 30
0.0
 11
837.5602801082921
 21
-3.361684656632065
 31
0.0
  0
LINE
  5
4BF
330
1E
100
AcDbEntity
  8
ﾚｲﾔ1
  6
Continuous
100
AcDbLine
 10
837.5602801082921
 20
-3.361684656632065
 30
0.0
 11
837.5602801082921
 21
-3.311684656632053
 31
0.0
  0
LINE
  5
4C0
330
1E
100
AcDbEntity
  8
ﾚｲﾔ1
  6
Continuous
100
AcDbLine
 10
837.5602801082921
 20
-3.311684656632053
 30
0.0
 11
837.6102801082922
 21
-3.211684656632052
 31
0.0
  0
LINE
  5
4C1
330
1E
100
AcDbEntity
  8
ﾚｲﾔ1
  6
Continuous
100
AcDbLine
 10
837.6102801082922
 20
-3.211684656632052
 30
0.0
 11
837.6102801082922
 21
-3.111684656632058
 31
0.0
  0
LINE
  5
4C2
330
1E
100
AcDbEntity
  8
ﾚｲﾔ1
  6
Continuous
100
AcDbLine
 10
837.6102801082922
 20
-3.111684656632058
 30
0.0
 11
837.6102801082922
 21
-3.011684656632063
 31
0.0
  0
LINE
  5
4C3
330
1E
100
AcDbEntity
  8
ﾚｲﾔ1
  6
Continuous
100
AcDbLine
 10
837.6102801082922
 20
-3.011684656632063
 30
0.0
 11
837.6602801082921
 21
-2.911684656632055
 31
0.0
  0
LINE
  5
4C4
330
1E
100
AcDbEntity
  8
ﾚｲﾔ1
  6
Continuous
100
AcDbLine
 10
837.6602801082921
 20
-2.911684656632055
 30
0.0
 11
837.6102801082922
 21
-2.811684656632053
 31
0.0
  0
LINE
  5
4C5
330
1E
100
AcDbEntity
  8
ﾚｲﾔ1
  6
Continuous
100
AcDbLine
 10
837.6102801082922
 20
-2.811684656632053
 30
0.0
 11
837.6102801082922
 21
-2.711684656632052
 31
0.0
  0
LINE
  5
4C6
330
1E
100
AcDbEntity
  8
ﾚｲﾔ1
  6
Continuous
100
AcDbLine
 10
837.6102801082922
 20
-2.711684656632052
 30
0.0
 11
837.6102801082922
 21
-2.611684656632065
 31
0.0
  0
LINE
  5
4C7
330
1E
100
AcDbEntity
  8
ﾚｲﾔ1
  6
Continuous
100
AcDbLine
 10
837.6102801082922
 20
-2.611684656632065
 30
0.0
 11
837.5602801082921
 21
-2.511684656632056
 31
0.0
  0
LINE
  5
4C8
330
1E
100
AcDbEntity
  8
ﾚｲﾔ1
  6
Continuous
100
AcDbLine
 10
837.5602801082921
 20
-2.511684656632056
 30
0.0
 11
837.5602801082921
 21
-2.361684656632058
 31
0.0
  0
LINE
  5
4C9
330
1E
100
AcDbEntity
  8
ﾚｲﾔ1
  6
Continuous
100
AcDbLine
 10
837.5602801082921
 20
-2.361684656632058
 30
0.0
 11
837.5102801082921
 21
-2.211684656632052
 31
0.0
  0
LINE
  5
4CA
330
1E
100
AcDbEntity
  8
ﾚｲﾔ1
  6
Continuous
100
AcDbLine
 10
837.5102801082921
 20
-2.211684656632052
 30
0.0
 11
837.4602801082922
 21
-2.111684656632065
 31
0.0
  0
LINE
  5
4CB
330
1E
100
AcDbEntity
  8
ﾚｲﾔ1
  6
Continuous
100
AcDbLine
 10
837.4602801082922
 20
-2.111684656632065
 30
0.0
 11
837.3602801082922
 21
-1.961684656632052
 31
0.0
  0
LINE
  5
4CC
330
1E
100
AcDbEntity
  8
ﾚｲﾔ1
  6
Continuous
100
AcDbLine
 10
837.3602801082922
 20
-1.961684656632052
 30
0.0
 11
837.3102801082921
 21
-1.811684656632053
 31
0.0
  0
LINE
  5
4CD
330
1E
100
AcDbEntity
  8
ﾚｲﾔ1
  6
Continuous
100
AcDbLine
 10
837.3102801082921
 20
-1.811684656632053
 30
0.0
 11
837.2602801082921
 21
-1.661684656632055
 31
0.0
  0
LINE
  5
4CE
330
1E
100
AcDbEntity
  8
ﾚｲﾔ1
  6
Continuous
100
AcDbLine
 10
837.2602801082921
 20
-1.661684656632055
 30
0.0
 11
837.1602801082921
 21
-1.511684656632056
 31
0.0
  0
LINE
  5
4CF
330
1E
100
AcDbEntity
  8
ﾚｲﾔ1
  6
Continuous
100
AcDbLine
 10
837.1602801082921
 20
-1.511684656632056
 30
0.0
 11
837.0602801082921
 21
-1.361684656632065
 31
0.0
  0
LINE
  5
4D0
330
1E
100
AcDbEntity
  8
ﾚｲﾔ1
  6
Continuous
100
AcDbLine
 10
835.8102801082921
 20
-4.111684656632058
 30
0.0
 11
836.0602801082921
 21
-4.061684656632053
 31
0.0
  0
LINE
  5
4D1
330
1E
100
AcDbEntity
  8
ﾚｲﾔ1
  6
Continuous
100
AcDbLine
 10
836.0602801082921
 20
-4.061684656632053
 30
0.0
 11
836.2602801082921
 21
-4.011684656632056
 31
0.0
  0
LINE
  5
4D2
330
1E
100
AcDbEntity
  8
ﾚｲﾔ1
  6
Continuous
100
AcDbLine
 10
836.2602801082921
 20
-4.011684656632056
 30
0.0
 11
836.4602801082922
 21
-3.961684656632052
 31
0.0
  0
LINE
  5
4D3
330
1E
100
AcDbEntity
  8
ﾚｲﾔ1
  6
Continuous
100
AcDbLine
 10
836.4602801082922
 20
-3.961684656632052
 30
0.0
 11
836.6602801082921
 21
-3.911684656632062
 31
0.0
  0
LINE
  5
4D4
330
1E
100
AcDbEntity
  8
ﾚｲﾔ1
  6
Continuous
100
AcDbLine
 10
836.6602801082921
 20
-3.911684656632062
 30
0.0
 11
836.8102801082921
 21
-3.861684656632065
 31
0.0
  0
LINE
  5
4D5
330
1E
100
AcDbEntity
  8
ﾚｲﾔ1
  6
Continuous
100
AcDbLine
 10
836.8102801082921
 20
-3.861684656632065
 30
0.0
 11
836.9102801082921
 21
-3.811684656632053
 31
0.0
  0
LINE
  5
4D6
330
1E
100
AcDbEntity
  8
ﾚｲﾔ1
  6
Continuous
100
AcDbLine
 10
836.9102801082921
 20
-3.811684656632053
 30
0.0
 11
837.0602801082921
 21
-3.761684656632056
 31
0.0
  0
LINE
  5
4D7
330
1E
100
AcDbEntity
  8
ﾚｲﾔ1
  6
Continuous
100
AcDbLine
 10
837.0602801082921
 20
-1.361684656632065
 30
0.0
 11
836.9602801082922
 21
-1.211684656632052
 31
0.0
  0
LINE
  5
4D8
330
1E
100
AcDbEntity
  8
ﾚｲﾔ1
  6
Continuous
100
AcDbLine
 10
836.9602801082922
 20
-1.211684656632052
 30
0.0
 11
836.8602801082922
 21
-1.061684656632053
 31
0.0
  0
LINE
  5
4D9
330
1E
100
AcDbEntity
  8
ﾚｲﾔ1
  6
Continuous
100
AcDbLine
 10
836.8602801082922
 20
-1.061684656632053
 30
0.0
 11
836.8102801082921
 21
-0.9116846566320547
 31
0.0
  0
LINE
  5
4DA
330
1E
100
AcDbEntity
  8
ﾚｲﾔ1
  6
Continuous
100
AcDbLine
 10
802.3102791082922
 20
-0.2616846566320561
 30
0.0
 11
802.2102791082921
 21
-0.4116846566320547
 31
0.0
  0
LINE
  5
4DB
330
1E
100
AcDbEntity
  8
ﾚｲﾔ1
  6
Continuous
100
AcDbLine
 10
802.2102791082921
 20
-0.4116846566320547
 30
0.0
 11
802.1102791082922
 21
-0.5116846566320632
 31
0.0
  0
LINE
  5
4DC
330
1E
100
AcDbEntity
  8
ﾚｲﾔ1
  6
Continuous
100
AcDbLine
 10
802.1102791082922
 20
-0.5116846566320632
 30
0.0
 11
802.0102791082921
 21
-0.6616846566320547
 31
0.0
  0
LINE
  5
4DD
330
1E
100
AcDbEntity
  8
ﾚｲﾔ1
  6
Continuous
100
AcDbLine
 10
802.0102791082921
 20
-0.6616846566320547
 30
0.0
 11
801.9102791082921
 21
-0.8116846566320532
 31
0.0
  0
LINE
  5
4DE
330
1E
100
AcDbEntity
  8
ﾚｲﾔ1
  6
Continuous
100
AcDbLine
 10
801.9102791082921
 20
-0.8116846566320532
 30
0.0
 11
801.8102791082921
 21
-0.9116846566320547
 31
0.0
  0
LINE
  5
4DF
330
1E
100
AcDbEntity
  8
ﾚｲﾔ1
  6
Continuous
100
AcDbLine
 10
801.8102791082921
 20
-0.9116846566320547
 30
0.0
 11
801.7102791082922
 21
-1.061684656632053
 31
0.0
  0
LINE
  5
4E0
330
1E
100
AcDbEntity
  8
ﾚｲﾔ1
  6
Continuous
100
AcDbLine
 10
801.7102791082922
 20
-1.061684656632053
 30
0.0
 11
801.6102791082922
 21
-1.211684656632052
 31
0.0
  0
LINE
  5
4E1
330
1E
100
AcDbEntity
  8
ﾚｲﾔ1
  6
Continuous
100
AcDbLine
 10
801.6102791082922
 20
-1.211684656632052
 30
0.0
 11
801.5102791082921
 21
-1.361684656632065
 31
0.0
  0
LINE
  5
4E2
330
1E
100
AcDbEntity
  8
ﾚｲﾔ1
  6
Continuous
100
AcDbLine
 10
801.5102791082921
 20
-1.361684656632065
 30
0.0
 11
801.4102791082921
 21
-1.511684656632056
 31
0.0
  0
LINE
  5
4E3
330
1E
100
AcDbEntity
  8
ﾚｲﾔ1
  6
Continuous
100
AcDbLine
 10
801.4102791082921
 20
-1.511684656632056
 30
0.0
 11
801.3602791082922
 21
-1.661684656632055
 31
0.0
  0
LINE
  5
4E4
330
1E
100
AcDbEntity
  8
ﾚｲﾔ1
  6
Continuous
100
AcDbLine
 10
801.3602791082922
 20
-1.661684656632055
 30
0.0
 11
801.2602791082921
 21
-1.811684656632053
 31
0.0
  0
LINE
  5
4E5
330
1E
100
AcDbEntity
  8
ﾚｲﾔ1
  6
Continuous
100
AcDbLine
 10
801.2602791082921
 20
-1.811684656632053
 30
0.0
 11
801.2102791082921
 21
-1.961684656632052
 31
0.0
  0
LINE
  5
4E6
330
1E
100
AcDbEntity
  8
ﾚｲﾔ1
  6
Continuous
100
AcDbLine
 10
801.2102791082921
 20
-1.961684656632052
 30
0.0
 11
801.1102791082922
 21
-2.111684656632065
 31
0.0
  0
LINE
  5
4E7
330
1E
100
AcDbEntity
  8
ﾚｲﾔ1
  6
Continuous
100
AcDbLine
 10
801.1102791082922
 20
-2.111684656632065
 30
0.0
 11
801.0602791082922
 21
-2.211684656632052
 31
0.0
  0
LINE
  5
4E8
330
1E
100
AcDbEntity
  8
ﾚｲﾔ1
  6
Continuous
100
AcDbLine
 10
801.0602791082922
 20
-2.211684656632052
 30
0.0
 11
801.0602791082922
 21
-2.361684656632058
 31
0.0
  0
LINE
  5
4E9
330
1E
100
AcDbEntity
  8
ﾚｲﾔ1
  6
Continuous
100
AcDbLine
 10
801.0602791082922
 20
-2.361684656632058
 30
0.0
 11
801.0102791082921
 21
-2.511684656632056
 31
0.0
  0
LINE
  5
4EA
330
1E
100
AcDbEntity
  8
ﾚｲﾔ1
  6
Continuous
100
AcDbLine
 10
801.0102791082921
 20
-2.511684656632056
 30
0.0
 11
800.9602791082921
 21
-2.611684656632065
 31
0.0
  0
LINE
  5
4EB
330
1E
100
AcDbEntity
  8
ﾚｲﾔ1
  6
Continuous
100
AcDbLine
 10
800.9602791082921
 20
-2.611684656632065
 30
0.0
 11
800.9602791082921
 21
-2.711684656632052
 31
0.0
  0
LINE
  5
4EC
330
1E
100
AcDbEntity
  8
ﾚｲﾔ1
  6
Continuous
100
AcDbLine
 10
800.9602791082921
 20
-2.711684656632052
 30
0.0
 11
800.9602791082921
 21
-2.811684656632053
 31
0.0
  0
LINE
  5
4ED
330
1E
100
AcDbEntity
  8
ﾚｲﾔ1
  6
Continuous
100
AcDbLine
 10
800.9602791082921
 20
-2.811684656632053
 30
0.0
 11
800.9602791082921
 21
-2.911684656632055
 31
0.0
  0
LINE
  5
4EE
330
1E
100
AcDbEntity
  8
ﾚｲﾔ1
  6
Continuous
100
AcDbLine
 10
800.9602791082921
 20
-2.911684656632055
 30
0.0
 11
800.9602791082921
 21
-3.011684656632063
 31
0.0
  0
LINE
  5
4EF
330
1E
100
AcDbEntity
  8
ﾚｲﾔ1
  6
Continuous
100
AcDbLine
 10
800.9602791082921
 20
-3.011684656632063
 30
0.0
 11
800.9602791082921
 21
-3.111684656632058
 31
0.0
  0
LINE
  5
4F0
330
1E
100
AcDbEntity
  8
ﾚｲﾔ1
  6
Continuous
100
AcDbLine
 10
800.9602791082921
 20
-3.111684656632058
 30
0.0
 11
800.9602791082921
 21
-3.211684656632052
 31
0.0
  0
LINE
  5
4F1
330
1E
100
AcDbEntity
  8
ﾚｲﾔ1
  6
Continuous
100
AcDbLine
 10
800.9602791082921
 20
-3.211684656632052
 30
0.0
 11
801.0102791082921
 21
-3.311684656632053
 31
0.0
  0
LINE
  5
4F2
330
1E
100
AcDbEntity
  8
ﾚｲﾔ1
  6
Continuous
100
AcDbLine
 10
801.0102791082921
 20
-3.311684656632053
 30
0.0
 11
801.0602791082922
 21
-3.361684656632065
 31
0.0
  0
LINE
  5
4F3
330
1E
100
AcDbEntity
  8
ﾚｲﾔ1
  6
Continuous
100
AcDbLine
 10
801.0602791082922
 20
-3.361684656632065
 30
0.0
 11
801.0602791082922
 21
-3.411684656632055
 31
0.0
  0
LINE
  5
4F4
330
1E
100
AcDbEntity
  8
ﾚｲﾔ1
  6
Continuous
100
AcDbLine
 10
801.0602791082922
 20
-3.411684656632055
 30
0.0
 11
801.1102791082922
 21
-3.511684656632063
 31
0.0
  0
LINE
  5
4F5
330
1E
100
AcDbEntity
  8
ﾚｲﾔ1
  6
Continuous
100
AcDbLine
 10
801.1102791082922
 20
-3.511684656632063
 30
0.0
 11
801.2102791082921
 21
-3.561684656632053
 31
0.0
  0
LINE
  5
4F6
330
1E
100
AcDbEntity
  8
ﾚｲﾔ1
  6
Continuous
100
AcDbLine
 10
801.2102791082921
 20
-3.561684656632053
 30
0.0
 11
801.2602791082921
 21
-3.611684656632058
 31
0.0
  0
LINE
  5
4F7
330
1E
100
AcDbEntity
  8
ﾚｲﾔ1
  6
Continuous
100
AcDbLine
 10
801.2602791082921
 20
-3.611684656632058
 30
0.0
 11
801.3602791082922
 21
-3.661684656632055
 31
0.0
  0
LINE
  5
4F8
330
1E
100
AcDbEntity
  8
ﾚｲﾔ1
  6
Continuous
100
AcDbLine
 10
801.3602791082922
 20
-3.661684656632055
 30
0.0
 11
801.4102791082921
 21
-3.711684656632052
 31
0.0
  0
LINE
  5
4F9
330
1E
100
AcDbEntity
  8
ﾚｲﾔ1
  6
Continuous
100
AcDbLine
 10
801.4102791082921
 20
-3.711684656632052
 30
0.0
 11
801.5102791082921
 21
-3.761684656632056
 31
0.0
  0
LINE
  5
4FA
330
1E
100
AcDbEntity
  8
ﾚｲﾔ1
  6
Continuous
100
AcDbLine
 10
801.5102791082921
 20
-3.761684656632056
 30
0.0
 11
801.6602791082921
 21
-3.811684656632053
 31
0.0
  0
LINE
  5
4FB
330
1E
100
AcDbEntity
  8
ﾚｲﾔ1
  6
Continuous
100
AcDbLine
 10
801.6602791082921
 20
-3.811684656632053
 30
0.0
 11
801.7602791082921
 21
-3.861684656632065
 31
0.0
  0
LINE
  5
4FC
330
1E
100
AcDbEntity
  8
ﾚｲﾔ1
  6
Continuous
100
AcDbLine
 10
801.7602791082921
 20
-3.861684656632065
 30
0.0
 11
801.9102791082921
 21
-3.911684656632062
 31
0.0
  0
LINE
  5
4FD
330
1E
100
AcDbEntity
  8
ﾚｲﾔ1
  6
Continuous
100
AcDbLine
 10
801.9102791082921
 20
-3.911684656632062
 30
0.0
 11
802.0602791082921
 21
-3.961684656632052
 31
0.0
  0
LINE
  5
4FE
330
1E
100
AcDbEntity
  8
ﾚｲﾔ1
  6
Continuous
100
AcDbLine
 10
802.0602791082921
 20
-3.961684656632052
 30
0.0
 11
802.2602791082921
 21
-4.011684656632056
 31
0.0
  0
LINE
  5
4FF
330
1E
100
AcDbEntity
  8
ﾚｲﾔ1
  6
Continuous
 62
    22
100
AcDbLine
 10
836.7102801082922
 20
-0.6616846566320547
 30
0.0
 11
842.3102801082921
 21
-0.6616846566320547
 31
0.0
  0
LINE
  5
500
330
1E
100
AcDbEntity
  8
ﾚｲﾔ1
  6
Continuous
100
AcDbLine
 10
802.1102791082922
 20
-0.6616846566320547
 30
0.0
 11
781.5936151082922
 21
-0.6616846566320547
 31
0.0
  0
LINE
  5
501
330
1E
100
AcDbEntity
  8
ﾚｲﾔ1
  6
Continuous
100
AcDbLine
 10
842.3102801082921
 20
-0.6616846566320547
 30
0.0
 11
844.3102801082921
 21
-2.211684656632052
 31
0.0
  0
LINE
  5
502
330
1E
100
AcDbEntity
  8
ﾚｲﾔ1
  6
Continuous
100
AcDbLine
 10
844.3102801082921
 20
-2.211684656632052
 30
0.0
 11
844.3102801082921
 21
-43.66168465663205
 31
0.0
  0
LINE
  5
503
330
1E
100
AcDbEntity
  8
ﾚｲﾔ1
  6
Continuous
100
AcDbLine
 10
842.3102801082921
 20
-0.6616846566320547
 30
0.0
 11
842.3102801082921
 21
-43.66168465663205
 31
0.0
  0
LINE
  5
504
330
1E
100
AcDbEntity
  8
ﾚｲﾔ1
  6
Continuous
100
AcDbLine
 10
842.3102801082921
 20
-86.66168365663205
 30
0.0
 11
842.3102801082921
 21
-43.66168465663205
 31
0.0
  0
LINE
  5
505
330
1E
100
AcDbEntity
  8
ﾚｲﾔ1
  6
Continuous
100
AcDbLine
 10
844.3102801082921
 20
-85.11168365663205
 30
0.0
 11
844.3102801082921
 21
-43.66168465663205
 31
0.0
  0
LINE
  5
506
330
1E
100
AcDbEntity
  8
ﾚｲﾔ1
  6
Continuous
100
AcDbLine
 10
842.3102801082921
 20
-86.66168365663205
 30
0.0
 11
844.3102801082921
 21
-85.11168365663205
 31
0.0
  0
LINE
  5
507
330
1E
100
AcDbEntity
  8
ﾚｲﾔ1
  6
Continuous
100
AcDbLine
 10
787.9602791082922
 20
-0.6616846566320547
 30
0.0
 11
767.3102791082921
 21
-0.6616846566320547
 31
0.0
  0
LINE
  5
508
330
1E
100
AcDbEntity
  8
ﾚｲﾔ1
  6
Continuous
100
AcDbLine
 10
842.3102801082921
 20
-86.66168365663205
 30
0.0
 11
767.3102791082921
 21
-86.66168365663205
 31
0.0
  0
LINE
  5
509
330
1E
100
AcDbEntity
  8
ﾚｲﾔ1
  6
Continuous
100
AcDbLine
 10
704.3102791082921
 20
-4.211684656632052
 30
0.0
 11
764.3102791082921
 21
-4.211684656632052
 31
0.0
  0
LINE
  5
50A
330
1E
100
AcDbEntity
  8
ﾚｲﾔ1
  6
Continuous
100
AcDbLine
 10
706.3102791082921
 20
-2.211684656632052
 30
0.0
 11
764.3102791082921
 21
-2.211684656632052
 31
0.0
  0
LINE
  5
50B
330
1E
100
AcDbEntity
  8
ﾚｲﾔ1
  6
Continuous
100
AcDbLine
 10
706.3102791082921
 20
-85.11168365663205
 30
0.0
 11
764.3102791082921
 21
-85.11168365663205
 31
0.0
  0
LINE
  5
50C
330
1E
100
AcDbEntity
  8
ﾚｲﾔ1
  6
Continuous
100
AcDbLine
 10
704.3102791082921
 20
-83.11168365663205
 30
0.0
 11
764.3102791082921
 21
-83.11168365663205
 31
0.0
  0
LINE
  5
50D
330
1E
100
AcDbEntity
  8
ﾚｲﾔ1
100
AcDbLine
 10
764.3102791082921
 20
-2.211684656632052
 30
0.0
 11
767.3102791082921
 21
-0.6616846566320547
 31
0.0
  0
LINE
  5
50E
330
1E
100
AcDbEntity
  8
ﾚｲﾔ1
100
AcDbLine
 10
764.3102791082921
 20
-85.11168365663205
 30
0.0
 11
767.3102791082921
 21
-86.66168365663205
 31
0.0
  0
LINE
  5
50F
330
1E
100
AcDbEntity
  8
ﾚｲﾔ1
  6
DASHDOT
 62
     9
100
AcDbLine
 10
852.2102801082922
 20
-43.66168465663205
 30
0.0
 11
531.6734621082921
 21
-43.66168465663205
 31
0.0
  0
CIRCLE
  5
510
330
1E
100
AcDbEntity
  8
ﾚｲﾔ1
100
AcDbCircle
 10
593.7284741082922
 20
-43.66168465663205
 30
0.0
 40
21.0
  0
CIRCLE
  5
511
330
1E
100
AcDbEntity
  8
ﾚｲﾔ1
100
AcDbCircle
 10
593.7284741082922
 20
-43.66168465663205
 30
0.0
 40
19.0
  0
INSERT
  5
512
330
1E
100
AcDbEntity
  8
補助線
100
AcDbBlockReference
  2
*U2
 10
717.1734621082921
 20
-56.15617165663205
 30
0.0
  0
INSERT
  5
513
330
1E
100
AcDbEntity
  8
補助線
100
AcDbBlockReference
  2
*U3
 10
717.1734621082921
 20
-56.15617165663205
 30
0.0
  0
TEXT
  5
549
330
1E
100
AcDbEntity
  8
文字
 62
     7
100
AcDbText
 10
629.6984621082921
 20
49.84382834336795
 30
0.0
 40
5.0
  1
ﾎﾟｰﾄ口 PT3/8
100
AcDbText
  0
INSERT
  5
54A
330
1E
100
AcDbEntity
  8
寸法
 62
     1
100
AcDbBlockReference
  2
*D4
 10
717.1734621082921
 20
-56.15617165663205
 30
0.0
  0
INSERT
  5
54B
330
1E
100
AcDbEntity
  8
寸法
 62
     1
100
AcDbBlockReference
  2
*D5
 10
717.1734621082921
 20
-56.15617165663205
 30
0.0
  0
INSERT
  5
54C
330
1E
100
AcDbEntity
  8
寸法
 62
     1
100
AcDbBlockReference
  2
*D6
 10
717.1734621082921
 20
-56.15617165663205
 30
0.0
  0
INSERT
  5
54D
330
1E
100
AcDbEntity
  8
寸法
 62
     1
100
AcDbBlockReference
  2
*D7
 10
717.1734621082921
 20
-56.15617165663205
 30
0.0
  0
INSERT
  5
54E
330
1E
100
AcDbEntity
  8
寸法
 62
     1
100
AcDbBlockReference
  2
*D8
 10
717.1734621082921
 20
-56.15617165663205
 30
0.0
  0
INSERT
  5
54F
330
1E
100
AcDbEntity
  8
寸法
 62
     1
100
AcDbBlockReference
  2
*D9
 10
717.1734621082921
 20
-56.15617165663205
 30
0.0
  0
INSERT
  5
550
330
1E
100
AcDbEntity
  8
寸法
 62
     7
100
AcDbBlockReference
  2
*U10
 10
717.1734621082921
 20
-56.15617165663205
 30
0.0
  0
LINE
  5
584
330
1E
100
AcDbEntity
  8
ﾚｲﾔ1
  6
Continuous
100
AcDbLine
 10
636.7284741082922
 20
-43.66168465663205
 30
0.0
 11
636.7284741082922
 21
-42.91168465663205
 31
0.0
  0
LINE
  5
585
330
1E
100
AcDbEntity
  8
ﾚｲﾔ1
  6
Continuous
100
AcDbLine
 10
636.7284741082922
 20
-42.91168465663205
 30
0.0
 11
636.6784741082921
 21
-42.16168465663205
 31
0.0
  0
LINE
  5
586
330
1E
100
AcDbEntity
  8
ﾚｲﾔ1
  6
Continuous
100
AcDbLine
 10
636.6784741082921
 20
-42.16168465663205
 30
0.0
 11
636.6784741082921
 21
-41.41168465663205
 31
0.0
  0
LINE
  5
587
330
1E
100
AcDbEntity
  8
ﾚｲﾔ1
  6
Continuous
100
AcDbLine
 10
636.6784741082921
 20
-41.41168465663205
 30
0.0
 11
636.6284741082922
 21
-40.66168465663205
 31
0.0
  0
LINE
  5
588
330
1E
100
AcDbEntity
  8
ﾚｲﾔ1
  6
Continuous
100
AcDbLine
 10
636.6284741082922
 20
-40.66168465663205
 30
0.0
 11
636.5784741082921
 21
-39.91168465663205
 31
0.0
  0
LINE
  5
589
330
1E
100
AcDbEntity
  8
ﾚｲﾔ1
  6
Continuous
100
AcDbLine
 10
636.5784741082921
 20
-39.91168465663205
 30
0.0
 11
636.4784741082922
 21
-39.16168465663205
 31
0.0
  0
LINE
  5
58A
330
1E
100
AcDbEntity
  8
ﾚｲﾔ1
  6
Continuous
100
AcDbLine
 10
636.4784741082922
 20
-39.16168465663205
 30
0.0
 11
636.4284741082921
 21
-38.41168465663205
 31
0.0
  0
LINE
  5
58B
330
1E
100
AcDbEntity
  8
ﾚｲﾔ1
  6
Continuous
100
AcDbLine
 10
636.4284741082921
 20
-38.41168465663205
 30
0.0
 11
636.3284741082921
 21
-37.66168465663205
 31
0.0
  0
LINE
  5
58C
330
1E
100
AcDbEntity
  8
ﾚｲﾔ1
  6
Continuous
100
AcDbLine
 10
636.3284741082921
 20
-37.66168465663205
 30
0.0
 11
636.1784741082921
 21
-36.91168465663205
 31
0.0
  0
LINE
  5
58D
330
1E
100
AcDbEntity
  8
ﾚｲﾔ1
  6
Continuous
100
AcDbLine
 10
636.1784741082921
 20
-36.91168465663205
 30
0.0
 11
636.0784741082921
 21
-36.21168465663206
 31
0.0
  0
LINE
  5
58E
330
1E
100
AcDbEntity
  8
ﾚｲﾔ1
  6
Continuous
100
AcDbLine
 10
636.0784741082921
 20
-36.21168465663206
 30
0.0
 11
635.9284741082921
 21
-35.46168465663206
 31
0.0
  0
LINE
  5
58F
330
1E
100
AcDbEntity
  8
ﾚｲﾔ1
  6
Continuous
100
AcDbLine
 10
635.9284741082921
 20
-35.46168465663206
 30
0.0
 11
635.7784741082921
 21
-34.71168465663206
 31
0.0
  0
LINE
  5
590
330
1E
100
AcDbEntity
  8
ﾚｲﾔ1
  6
Continuous
100
AcDbLine
 10
635.7784741082921
 20
-34.71168465663206
 30
0.0
 11
635.6284741082922
 21
-34.01168465663206
 31
0.0
  0
LINE
  5
591
330
1E
100
AcDbEntity
  8
ﾚｲﾔ1
  6
Continuous
100
AcDbLine
 10
635.6284741082922
 20
-34.01168465663206
 30
0.0
 11
635.4284741082921
 21
-33.26168465663206
 31
0.0
  0
LINE
  5
592
330
1E
100
AcDbEntity
  8
ﾚｲﾔ1
  6
Continuous
100
AcDbLine
 10
635.4284741082921
 20
-33.26168465663206
 30
0.0
 11
635.2784741082921
 21
-32.51168465663206
 31
0.0
  0
LINE
  5
593
330
1E
100
AcDbEntity
  8
ﾚｲﾔ1
  6
Continuous
100
AcDbLine
 10
635.2784741082921
 20
-32.51168465663206
 30
0.0
 11
635.0784741082921
 21
-31.81168465663205
 31
0.0
  0
LINE
  5
594
330
1E
100
AcDbEntity
  8
ﾚｲﾔ1
  6
Continuous
100
AcDbLine
 10
635.0784741082921
 20
-31.81168465663205
 30
0.0
 11
634.8284741082921
 21
-31.11168465663205
 31
0.0
  0
LINE
  5
595
330
1E
100
AcDbEntity
  8
ﾚｲﾔ1
  6
Continuous
100
AcDbLine
 10
634.8284741082921
 20
-31.11168465663205
 30
0.0
 11
634.6284741082922
 21
-30.36168465663205
 31
0.0
  0
LINE
  5
596
330
1E
100
AcDbEntity
  8
ﾚｲﾔ1
  6
Continuous
100
AcDbLine
 10
634.6284741082922
 20
-30.36168465663205
 30
0.0
 11
634.3784741082922
 21
-29.66168465663205
 31
0.0
  0
LINE
  5
597
330
1E
100
AcDbEntity
  8
ﾚｲﾔ1
  6
Continuous
100
AcDbLine
 10
634.3784741082922
 20
-29.66168465663205
 30
0.0
 11
634.1284741082922
 21
-28.96168465663206
 31
0.0
  0
LINE
  5
598
330
1E
100
AcDbEntity
  8
ﾚｲﾔ1
  6
Continuous
100
AcDbLine
 10
634.1284741082922
 20
-28.96168465663206
 30
0.0
 11
633.8784741082922
 21
-28.26168465663205
 31
0.0
  0
LINE
  5
599
330
1E
100
AcDbEntity
  8
ﾚｲﾔ1
  6
Continuous
100
AcDbLine
 10
633.8784741082922
 20
-28.26168465663205
 30
0.0
 11
633.5784741082921
 21
-27.56168465663205
 31
0.0
  0
LINE
  5
59A
330
1E
100
AcDbEntity
  8
ﾚｲﾔ1
  6
Continuous
100
AcDbLine
 10
633.5784741082921
 20
-27.56168465663205
 30
0.0
 11
633.3284741082921
 21
-26.86168465663205
 31
0.0
  0
LINE
  5
59B
330
1E
100
AcDbEntity
  8
ﾚｲﾔ1
  6
Continuous
100
AcDbLine
 10
633.3284741082921
 20
-26.86168465663205
 30
0.0
 11
633.0284741082921
 21
-26.16168465663205
 31
0.0
  0
LINE
  5
59C
330
1E
100
AcDbEntity
  8
ﾚｲﾔ1
  6
Continuous
100
AcDbLine
 10
633.0284741082921
 20
-26.16168465663205
 30
0.0
 11
632.6784741082921
 21
-25.51168465663205
 31
0.0
  0
LINE
  5
59D
330
1E
100
AcDbEntity
  8
ﾚｲﾔ1
  6
Continuous
100
AcDbLine
 10
632.6784741082921
 20
-25.51168465663205
 30
0.0
 11
632.3784741082922
 21
-24.81168465663205
 31
0.0
  0
LINE
  5
59E
330
1E
100
AcDbEntity
  8
ﾚｲﾔ1
  6
Continuous
100
AcDbLine
 10
632.3784741082922
 20
-24.81168465663205
 30
0.0
 11
632.0284741082921
 21
-24.16168465663205
 31
0.0
  0
LINE
  5
59F
330
1E
100
AcDbEntity
  8
ﾚｲﾔ1
  6
Continuous
100
AcDbLine
 10
632.0284741082921
 20
-24.16168465663205
 30
0.0
 11
631.6784741082921
 21
-23.46168465663205
 31
0.0
  0
LINE
  5
5A0
330
1E
100
AcDbEntity
  8
ﾚｲﾔ1
  6
Continuous
100
AcDbLine
 10
631.6784741082921
 20
-23.46168465663205
 30
0.0
 11
631.3284741082921
 21
-22.81168465663205
 31
0.0
  0
LINE
  5
5A1
330
1E
100
AcDbEntity
  8
ﾚｲﾔ1
  6
Continuous
100
AcDbLine
 10
631.3284741082921
 20
-22.81168465663205
 30
0.0
 11
630.9784741082922
 21
-22.16168465663205
 31
0.0
  0
LINE
  5
5A2
330
1E
100
AcDbEntity
  8
ﾚｲﾔ1
  6
Continuous
100
AcDbLine
 10
630.9784741082922
 20
-22.16168465663205
 30
0.0
 11
630.5784741082922
 21
-21.51168465663206
 31
0.0
  0
LINE
  5
5A3
330
1E
100
AcDbEntity
  8
ﾚｲﾔ1
  6
Continuous
100
AcDbLine
 10
630.5784741082922
 20
-21.51168465663206
 30
0.0
 11
630.1784741082921
 21
-20.86168465663206
 31
0.0
  0
LINE
  5
5A4
330
1E
100
AcDbEntity
  8
ﾚｲﾔ1
  6
Continuous
100
AcDbLine
 10
630.1784741082921
 20
-20.86168465663206
 30
0.0
 11
629.7784741082921
 21
-20.26168465663206
 31
0.0
  0
LINE
  5
5A5
330
1E
100
AcDbEntity
  8
ﾚｲﾔ1
  6
Continuous
100
AcDbLine
 10
629.7784741082921
 20
-20.26168465663206
 30
0.0
 11
629.3784741082922
 21
-19.61168465663206
 31
0.0
  0
LINE
  5
5A6
330
1E
100
AcDbEntity
  8
ﾚｲﾔ1
  6
Continuous
100
AcDbLine
 10
629.3784741082922
 20
-19.61168465663206
 30
0.0
 11
628.9284741082921
 21
-19.01168465663206
 31
0.0
  0
LINE
  5
5A7
330
1E
100
AcDbEntity
  8
ﾚｲﾔ1
  6
Continuous
100
AcDbLine
 10
628.9284741082921
 20
-19.01168465663206
 30
0.0
 11
628.5284741082921
 21
-18.41168465663205
 31
0.0
  0
LINE
  5
5A8
330
1E
100
AcDbEntity
  8
ﾚｲﾔ1
  6
Continuous
100
AcDbLine
 10
628.5284741082921
 20
-18.41168465663205
 30
0.0
 11
628.0784741082922
 21
-17.76168465663206
 31
0.0
  0
LINE
  5
5A9
330
1E
100
AcDbEntity
  8
ﾚｲﾔ1
  6
Continuous
100
AcDbLine
 10
628.0784741082922
 20
-17.76168465663206
 30
0.0
 11
627.6284741082922
 21
-17.21168465663205
 31
0.0
  0
LINE
  5
5AA
330
1E
100
AcDbEntity
  8
ﾚｲﾔ1
  6
Continuous
100
AcDbLine
 10
627.6284741082922
 20
-17.21168465663205
 30
0.0
 11
627.1284741082922
 21
-16.61168465663206
 31
0.0
  0
LINE
  5
5AB
330
1E
100
AcDbEntity
  8
ﾚｲﾔ1
  6
Continuous
100
AcDbLine
 10
627.1284741082922
 20
-16.61168465663206
 30
0.0
 11
626.6784741082921
 21
-16.01168465663206
 31
0.0
  0
LINE
  5
5AC
330
1E
100
AcDbEntity
  8
ﾚｲﾔ1
  6
Continuous
100
AcDbLine
 10
626.6784741082921
 20
-16.01168465663206
 30
0.0
 11
626.1784741082921
 21
-15.46168465663205
 31
0.0
  0
LINE
  5
5AD
330
1E
100
AcDbEntity
  8
ﾚｲﾔ1
  6
Continuous
100
AcDbLine
 10
626.1784741082921
 20
-15.46168465663205
 30
0.0
 11
625.6784741082921
 21
-14.91168465663205
 31
0.0
  0
LINE
  5
5AE
330
1E
100
AcDbEntity
  8
ﾚｲﾔ1
  6
Continuous
100
AcDbLine
 10
625.6784741082921
 20
-14.91168465663205
 30
0.0
 11
625.1784741082921
 21
-14.31168465663207
 31
0.0
  0
LINE
  5
5AF
330
1E
100
AcDbEntity
  8
ﾚｲﾔ1
  6
Continuous
100
AcDbLine
 10
625.1784741082921
 20
-14.31168465663207
 30
0.0
 11
624.6784741082921
 21
-13.81168465663205
 31
0.0
  0
LINE
  5
5B0
330
1E
100
AcDbEntity
  8
ﾚｲﾔ1
  6
Continuous
100
AcDbLine
 10
624.6784741082921
 20
-13.81168465663205
 30
0.0
 11
624.1284741082922
 21
-13.26168465663206
 31
0.0
  0
LINE
  5
5B1
330
1E
100
AcDbEntity
  8
ﾚｲﾔ1
  6
Continuous
100
AcDbLine
 10
624.1284741082922
 20
-13.26168465663206
 30
0.0
 11
623.5784741082921
 21
-12.71168465663205
 31
0.0
  0
LINE
  5
5B2
330
1E
100
AcDbEntity
  8
ﾚｲﾔ1
  6
Continuous
100
AcDbLine
 10
623.5784741082921
 20
-12.71168465663205
 30
0.0
 11
623.0784741082922
 21
-12.21168465663205
 31
0.0
  0
LINE
  5
5B3
330
1E
100
AcDbEntity
  8
ﾚｲﾔ1
  6
Continuous
100
AcDbLine
 10
623.0784741082922
 20
-12.21168465663205
 30
0.0
 11
622.4784741082922
 21
-11.71168465663205
 31
0.0
  0
LINE
  5
5B4
330
1E
100
AcDbEntity
  8
ﾚｲﾔ1
  6
Continuous
100
AcDbLine
 10
622.4784741082922
 20
-11.71168465663205
 30
0.0
 11
621.9284741082921
 21
-11.21168465663205
 31
0.0
  0
LINE
  5
5B5
330
1E
100
AcDbEntity
  8
ﾚｲﾔ1
  6
Continuous
100
AcDbLine
 10
621.9284741082921
 20
-11.21168465663205
 30
0.0
 11
621.3784741082922
 21
-10.71168465663205
 31
0.0
  0
LINE
  5
5B6
330
1E
100
AcDbEntity
  8
ﾚｲﾔ1
  6
Continuous
100
AcDbLine
 10
621.3784741082922
 20
-10.71168465663205
 30
0.0
 11
620.7784741082921
 21
-10.26168465663206
 31
0.0
  0
LINE
  5
5B7
330
1E
100
AcDbEntity
  8
ﾚｲﾔ1
  6
Continuous
100
AcDbLine
 10
620.7784741082921
 20
-10.26168465663206
 30
0.0
 11
620.1784741082921
 21
-9.761684656632063
 31
0.0
  0
LINE
  5
5B8
330
1E
100
AcDbEntity
  8
ﾚｲﾔ1
  6
Continuous
100
AcDbLine
 10
620.1784741082921
 20
-9.761684656632063
 30
0.0
 11
619.6284741082922
 21
-9.311684656632067
 31
0.0
  0
LINE
  5
5B9
330
1E
100
AcDbEntity
  8
ﾚｲﾔ1
  6
Continuous
100
AcDbLine
 10
619.6284741082922
 20
-9.311684656632067
 30
0.0
 11
618.9784741082922
 21
-8.861684656632065
 31
0.0
  0
LINE
  5
5BA
330
1E
100
AcDbEntity
  8
ﾚｲﾔ1
  6
Continuous
100
AcDbLine
 10
618.9784741082922
 20
-8.861684656632065
 30
0.0
 11
618.3784741082922
 21
-8.461684656632052
 31
0.0
  0
LINE
  5
5BB
330
1E
100
AcDbEntity
  8
ﾚｲﾔ1
  6
Continuous
100
AcDbLine
 10
618.3784741082922
 20
-8.461684656632052
 30
0.0
 11
617.7784741082921
 21
-8.011684656632063
 31
0.0
  0
LINE
  5
5BC
330
1E
100
AcDbEntity
  8
ﾚｲﾔ1
  6
Continuous
100
AcDbLine
 10
617.7784741082921
 20
-8.011684656632063
 30
0.0
 11
617.1284741082922
 21
-7.611684656632065
 31
0.0
  0
LINE
  5
5BD
330
1E
100
AcDbEntity
  8
ﾚｲﾔ1
  6
Continuous
100
AcDbLine
 10
617.1284741082922
 20
-7.611684656632065
 30
0.0
 11
616.5284741082921
 21
-7.211684656632052
 31
0.0
  0
LINE
  5
5BE
330
1E
100
AcDbEntity
  8
ﾚｲﾔ1
  6
Continuous
100
AcDbLine
 10
616.5284741082921
 20
-7.211684656632052
 30
0.0
 11
615.8784741082922
 21
-6.811684656632053
 31
0.0
  0
LINE
  5
5BF
330
1E
100
AcDbEntity
  8
ﾚｲﾔ1
  6
Continuous
100
AcDbLine
 10
615.8784741082922
 20
-6.811684656632053
 30
0.0
 11
615.2284741082922
 21
-6.411684656632062
 31
0.0
  0
LINE
  5
5C0
330
1E
100
AcDbEntity
  8
ﾚｲﾔ1
  6
Continuous
100
AcDbLine
 10
615.2284741082922
 20
-6.411684656632062
 30
0.0
 11
614.5784741082921
 21
-6.061684656632053
 31
0.0
  0
LINE
  5
5C1
330
1E
100
AcDbEntity
  8
ﾚｲﾔ1
  6
Continuous
100
AcDbLine
 10
614.5784741082921
 20
-6.061684656632053
 30
0.0
 11
613.9284741082921
 21
-5.711684656632052
 31
0.0
  0
LINE
  5
5C2
330
1E
100
AcDbEntity
  8
ﾚｲﾔ1
  6
Continuous
100
AcDbLine
 10
613.9284741082921
 20
-5.711684656632052
 30
0.0
 11
613.2284741082922
 21
-5.361684656632058
 31
0.0
  0
LINE
  5
5C3
330
1E
100
AcDbEntity
  8
ﾚｲﾔ1
  6
Continuous
100
AcDbLine
 10
613.2284741082922
 20
-5.361684656632058
 30
0.0
 11
612.5784741082921
 21
-5.011684656632056
 31
0.0
  0
LINE
  5
5C4
330
1E
100
AcDbEntity
  8
ﾚｲﾔ1
  6
Continuous
100
AcDbLine
 10
612.5784741082921
 20
-5.011684656632056
 30
0.0
 11
611.8784741082922
 21
-4.711684656632052
 31
0.0
  0
LINE
  5
5C5
330
1E
100
AcDbEntity
  8
ﾚｲﾔ1
  6
Continuous
100
AcDbLine
 10
611.8784741082922
 20
-4.711684656632052
 30
0.0
 11
611.2284741082922
 21
-4.361684656632058
 31
0.0
  0
LINE
  5
5C6
330
1E
100
AcDbEntity
  8
ﾚｲﾔ1
  6
Continuous
100
AcDbLine
 10
611.2284741082922
 20
-4.361684656632058
 30
0.0
 11
610.5284741082921
 21
-4.061684656632053
 31
0.0
  0
LINE
  5
5C7
330
1E
100
AcDbEntity
  8
ﾚｲﾔ1
  6
Continuous
100
AcDbLine
 10
610.5284741082921
 20
-4.061684656632053
 30
0.0
 11
609.8284741082921
 21
-3.811684656632053
 31
0.0
  0
LINE
  5
5C8
330
1E
100
AcDbEntity
  8
ﾚｲﾔ1
  6
Continuous
100
AcDbLine
 10
609.8284741082921
 20
-3.811684656632053
 30
0.0
 11
609.1284741082922
 21
-3.511684656632063
 31
0.0
  0
LINE
  5
5C9
330
1E
100
AcDbEntity
  8
ﾚｲﾔ1
  6
Continuous
100
AcDbLine
 10
609.1284741082922
 20
-3.511684656632063
 30
0.0
 11
608.4284741082921
 21
-3.261684656632056
 31
0.0
  0
LINE
  5
5CA
330
1E
100
AcDbEntity
  8
ﾚｲﾔ1
  6
Continuous
100
AcDbLine
 10
608.4284741082921
 20
-3.261684656632056
 30
0.0
 11
607.7284741082922
 21
-3.011684656632063
 31
0.0
  0
LINE
  5
5CB
330
1E
100
AcDbEntity
  8
ﾚｲﾔ1
  6
Continuous
100
AcDbLine
 10
607.7284741082922
 20
-3.011684656632063
 30
0.0
 11
607.0284741082921
 21
-2.761684656632056
 31
0.0
  0
LINE
  5
5CC
330
1E
100
AcDbEntity
  8
ﾚｲﾔ1
  6
Continuous
100
AcDbLine
 10
607.0284741082921
 20
-2.761684656632056
 30
0.0
 11
606.2784741082921
 21
-2.561684656632053
 31
0.0
  0
LINE
  5
5CD
330
1E
100
AcDbEntity
  8
ﾚｲﾔ1
  6
Continuous
100
AcDbLine
 10
606.2784741082921
 20
-2.561684656632053
 30
0.0
 11
605.5784741082921
 21
-2.311684656632053
 31
0.0
  0
LINE
  5
5CE
330
1E
100
AcDbEntity
  8
ﾚｲﾔ1
  6
Continuous
100
AcDbLine
 10
605.5784741082921
 20
-2.311684656632053
 30
0.0
 11
604.8784741082922
 21
-2.111684656632065
 31
0.0
  0
LINE
  5
5CF
330
1E
100
AcDbEntity
  8
ﾚｲﾔ1
  6
Continuous
100
AcDbLine
 10
604.8784741082922
 20
-2.111684656632065
 30
0.0
 11
604.1284741082922
 21
-1.961684656632052
 31
0.0
  0
LINE
  5
5D0
330
1E
100
AcDbEntity
  8
ﾚｲﾔ1
  6
Continuous
100
AcDbLine
 10
604.1284741082922
 20
-1.961684656632052
 30
0.0
 11
603.3784741082922
 21
-1.761684656632063
 31
0.0
  0
LINE
  5
5D1
330
1E
100
AcDbEntity
  8
ﾚｲﾔ1
  6
Continuous
100
AcDbLine
 10
603.3784741082922
 20
-1.761684656632063
 30
0.0
 11
602.6784741082921
 21
-1.611684656632058
 31
0.0
  0
LINE
  5
5D2
330
1E
100
AcDbEntity
  8
ﾚｲﾔ1
  6
Continuous
100
AcDbLine
 10
602.6784741082921
 20
-1.611684656632058
 30
0.0
 11
601.9284741082921
 21
-1.461684656632052
 31
0.0
  0
LINE
  5
5D3
330
1E
100
AcDbEntity
  8
ﾚｲﾔ1
  6
Continuous
100
AcDbLine
 10
601.9284741082921
 20
-1.461684656632052
 30
0.0
 11
601.1784741082921
 21
-1.311684656632053
 31
0.0
  0
LINE
  5
5D4
330
1E
100
AcDbEntity
  8
ﾚｲﾔ1
  6
Continuous
100
AcDbLine
 10
601.1784741082921
 20
-1.311684656632053
 30
0.0
 11
600.4784741082922
 21
-1.211684656632052
 31
0.0
  0
LINE
  5
5D5
330
1E
100
AcDbEntity
  8
ﾚｲﾔ1
  6
Continuous
100
AcDbLine
 10
600.4784741082922
 20
-1.211684656632052
 30
0.0
 11
599.7284741082922
 21
-1.061684656632053
 31
0.0
  0
LINE
  5
5D6
330
1E
100
AcDbEntity
  8
ﾚｲﾔ1
  6
Continuous
100
AcDbLine
 10
599.7284741082922
 20
-1.061684656632053
 30
0.0
 11
598.9784741082922
 21
-0.9616846566320518
 31
0.0
  0
LINE
  5
5D7
330
1E
100
AcDbEntity
  8
ﾚｲﾔ1
  6
Continuous
100
AcDbLine
 10
598.9784741082922
 20
-0.9616846566320518
 30
0.0
 11
598.2284741082922
 21
-0.9116846566320547
 31
0.0
  0
LINE
  5
5D8
330
1E
100
AcDbEntity
  8
ﾚｲﾔ1
  6
Continuous
100
AcDbLine
 10
598.2284741082922
 20
-0.9116846566320547
 30
0.0
 11
597.4784741082922
 21
-0.8116846566320532
 31
0.0
  0
LINE
  5
5D9
330
1E
100
AcDbEntity
  8
ﾚｲﾔ1
  6
Continuous
100
AcDbLine
 10
597.4784741082922
 20
-0.8116846566320532
 30
0.0
 11
596.7284741082922
 21
-0.7616846566320561
 31
0.0
  0
LINE
  5
5DA
330
1E
100
AcDbEntity
  8
ﾚｲﾔ1
  6
Continuous
100
AcDbLine
 10
596.7284741082922
 20
-0.7616846566320561
 30
0.0
 11
595.9784741082922
 21
-0.7116846566320518
 31
0.0
  0
LINE
  5
5DB
330
1E
100
AcDbEntity
  8
ﾚｲﾔ1
  6
Continuous
100
AcDbLine
 10
595.9784741082922
 20
-0.7116846566320518
 30
0.0
 11
595.2284741082922
 21
-0.7116846566320518
 31
0.0
  0
LINE
  5
5DC
330
1E
100
AcDbEntity
  8
ﾚｲﾔ1
  6
Continuous
100
AcDbLine
 10
595.2284741082922
 20
-0.7116846566320518
 30
0.0
 11
594.4784741082922
 21
-0.6616846566320547
 31
0.0
  0
LINE
  5
5DD
330
1E
100
AcDbEntity
  8
ﾚｲﾔ1
  6
Continuous
100
AcDbLine
 10
594.4784741082922
 20
-0.6616846566320547
 30
0.0
 11
593.7284741082922
 21
-0.6616846566320547
 31
0.0
  0
LINE
  5
5DE
330
1E
100
AcDbEntity
  8
ﾚｲﾔ1
  6
Continuous
100
AcDbLine
 10
593.7284741082922
 20
-0.6616846566320547
 30
0.0
 11
592.9784741082922
 21
-0.6616846566320547
 31
0.0
  0
LINE
  5
5DF
330
1E
100
AcDbEntity
  8
ﾚｲﾔ1
  6
Continuous
100
AcDbLine
 10
592.9784741082922
 20
-0.6616846566320547
 30
0.0
 11
592.2284741082922
 21
-0.7116846566320518
 31
0.0
  0
LINE
  5
5E0
330
1E
100
AcDbEntity
  8
ﾚｲﾔ1
  6
Continuous
100
AcDbLine
 10
592.2284741082922
 20
-0.7116846566320518
 30
0.0
 11
591.4784741082922
 21
-0.7116846566320518
 31
0.0
  0
LINE
  5
5E1
330
1E
100
AcDbEntity
  8
ﾚｲﾔ1
  6
Continuous
100
AcDbLine
 10
591.4784741082922
 20
-0.7116846566320518
 30
0.0
 11
590.7284741082922
 21
-0.7616846566320561
 31
0.0
  0
LINE
  5
5E2
330
1E
100
AcDbEntity
  8
ﾚｲﾔ1
  6
Continuous
100
AcDbLine
 10
590.7284741082922
 20
-0.7616846566320561
 30
0.0
 11
589.9784741082922
 21
-0.8116846566320532
 31
0.0
  0
LINE
  5
5E3
330
1E
100
AcDbEntity
  8
ﾚｲﾔ1
  6
Continuous
100
AcDbLine
 10
589.9784741082922
 20
-0.8116846566320532
 30
0.0
 11
589.2284741082922
 21
-0.9116846566320547
 31
0.0
  0
LINE
  5
5E4
330
1E
100
AcDbEntity
  8
ﾚｲﾔ1
  6
Continuous
100
AcDbLine
 10
589.2284741082922
 20
-0.9116846566320547
 30
0.0
 11
588.4784741082922
 21
-0.9616846566320518
 31
0.0
  0
LINE
  5
5E5
330
1E
100
AcDbEntity
  8
ﾚｲﾔ1
  6
Continuous
100
AcDbLine
 10
588.4784741082922
 20
-0.9616846566320518
 30
0.0
 11
587.7284741082922
 21
-1.061684656632053
 31
0.0
  0
LINE
  5
5E6
330
1E
100
AcDbEntity
  8
ﾚｲﾔ1
  6
Continuous
100
AcDbLine
 10
587.7284741082922
 20
-1.061684656632053
 30
0.0
 11
586.9784741082922
 21
-1.211684656632052
 31
0.0
  0
LINE
  5
5E7
330
1E
100
AcDbEntity
  8
ﾚｲﾔ1
  6
Continuous
100
AcDbLine
 10
586.9784741082922
 20
-1.211684656632052
 30
0.0
 11
586.2784741082921
 21
-1.311684656632053
 31
0.0
  0
LINE
  5
5E8
330
1E
100
AcDbEntity
  8
ﾚｲﾔ1
  6
Continuous
100
AcDbLine
 10
586.2784741082921
 20
-1.311684656632053
 30
0.0
 11
585.5284741082921
 21
-1.461684656632052
 31
0.0
  0
LINE
  5
5E9
330
1E
100
AcDbEntity
  8
ﾚｲﾔ1
  6
Continuous
100
AcDbLine
 10
585.5284741082921
 20
-1.461684656632052
 30
0.0
 11
584.7784741082921
 21
-1.611684656632058
 31
0.0
  0
LINE
  5
5EA
330
1E
100
AcDbEntity
  8
ﾚｲﾔ1
  6
Continuous
100
AcDbLine
 10
584.7784741082921
 20
-1.611684656632058
 30
0.0
 11
584.0784741082921
 21
-1.761684656632063
 31
0.0
  0
LINE
  5
5EB
330
1E
100
AcDbEntity
  8
ﾚｲﾔ1
  6
Continuous
100
AcDbLine
 10
584.0784741082921
 20
-1.761684656632063
 30
0.0
 11
583.3284741082921
 21
-1.961684656632052
 31
0.0
  0
LINE
  5
5EC
330
1E
100
AcDbEntity
  8
ﾚｲﾔ1
  6
Continuous
100
AcDbLine
 10
583.3284741082921
 20
-1.961684656632052
 30
0.0
 11
582.5784741082921
 21
-2.111684656632065
 31
0.0
  0
LINE
  5
5ED
330
1E
100
AcDbEntity
  8
ﾚｲﾔ1
  6
Continuous
100
AcDbLine
 10
582.5784741082921
 20
-2.111684656632065
 30
0.0
 11
581.8784741082922
 21
-2.311684656632053
 31
0.0
  0
LINE
  5
5EE
330
1E
100
AcDbEntity
  8
ﾚｲﾔ1
  6
Continuous
100
AcDbLine
 10
581.8784741082922
 20
-2.311684656632053
 30
0.0
 11
581.1784741082921
 21
-2.561684656632053
 31
0.0
  0
LINE
  5
5EF
330
1E
100
AcDbEntity
  8
ﾚｲﾔ1
  6
Continuous
100
AcDbLine
 10
581.1784741082921
 20
-2.561684656632053
 30
0.0
 11
580.4284741082921
 21
-2.761684656632056
 31
0.0
  0
LINE
  5
5F0
330
1E
100
AcDbEntity
  8
ﾚｲﾔ1
  6
Continuous
100
AcDbLine
 10
580.4284741082921
 20
-2.761684656632056
 30
0.0
 11
579.7284741082922
 21
-3.011684656632063
 31
0.0
  0
LINE
  5
5F1
330
1E
100
AcDbEntity
  8
ﾚｲﾔ1
  6
Continuous
100
AcDbLine
 10
579.7284741082922
 20
-3.011684656632063
 30
0.0
 11
579.0284741082921
 21
-3.261684656632056
 31
0.0
  0
LINE
  5
5F2
330
1E
100
AcDbEntity
  8
ﾚｲﾔ1
  6
Continuous
100
AcDbLine
 10
579.0284741082921
 20
-3.261684656632056
 30
0.0
 11
578.3284741082921
 21
-3.511684656632063
 31
0.0
  0
LINE
  5
5F3
330
1E
100
AcDbEntity
  8
ﾚｲﾔ1
  6
Continuous
100
AcDbLine
 10
578.3284741082921
 20
-3.511684656632063
 30
0.0
 11
577.6284741082922
 21
-3.811684656632053
 31
0.0
  0
LINE
  5
5F4
330
1E
100
AcDbEntity
  8
ﾚｲﾔ1
  6
Continuous
100
AcDbLine
 10
577.6284741082922
 20
-3.811684656632053
 30
0.0
 11
576.9284741082922
 21
-4.061684656632053
 31
0.0
  0
LINE
  5
5F5
330
1E
100
AcDbEntity
  8
ﾚｲﾔ1
  6
Continuous
100
AcDbLine
 10
576.9284741082922
 20
-4.061684656632053
 30
0.0
 11
576.2284741082922
 21
-4.361684656632058
 31
0.0
  0
LINE
  5
5F6
330
1E
100
AcDbEntity
  8
ﾚｲﾔ1
  6
Continuous
100
AcDbLine
 10
576.2284741082922
 20
-4.361684656632058
 30
0.0
 11
575.5784741082921
 21
-4.711684656632052
 31
0.0
  0
LINE
  5
5F7
330
1E
100
AcDbEntity
  8
ﾚｲﾔ1
  6
Continuous
100
AcDbLine
 10
575.5784741082921
 20
-4.711684656632052
 30
0.0
 11
574.8784741082922
 21
-5.011684656632056
 31
0.0
  0
LINE
  5
5F8
330
1E
100
AcDbEntity
  8
ﾚｲﾔ1
  6
Continuous
100
AcDbLine
 10
574.8784741082922
 20
-5.011684656632056
 30
0.0
 11
574.2284741082922
 21
-5.361684656632058
 31
0.0
  0
LINE
  5
5F9
330
1E
100
AcDbEntity
  8
ﾚｲﾔ1
  6
Continuous
100
AcDbLine
 10
574.2284741082922
 20
-5.361684656632058
 30
0.0
 11
573.5284741082921
 21
-5.711684656632052
 31
0.0
  0
LINE
  5
5FA
330
1E
100
AcDbEntity
  8
ﾚｲﾔ1
  6
Continuous
100
AcDbLine
 10
573.5284741082921
 20
-5.711684656632052
 30
0.0
 11
572.8784741082922
 21
-6.061684656632053
 31
0.0
  0
LINE
  5
5FB
330
1E
100
AcDbEntity
  8
ﾚｲﾔ1
  6
Continuous
100
AcDbLine
 10
572.8784741082922
 20
-6.061684656632053
 30
0.0
 11
572.2284741082922
 21
-6.411684656632062
 31
0.0
  0
LINE
  5
5FC
330
1E
100
AcDbEntity
  8
ﾚｲﾔ1
  6
Continuous
100
AcDbLine
 10
572.2284741082922
 20
-6.411684656632062
 30
0.0
 11
571.5784741082921
 21
-6.811684656632053
 31
0.0
  0
LINE
  5
5FD
330
1E
100
AcDbEntity
  8
ﾚｲﾔ1
  6
Continuous
100
AcDbLine
 10
571.5784741082921
 20
-6.811684656632053
 30
0.0
 11
570.9284741082921
 21
-7.211684656632052
 31
0.0
  0
LINE
  5
5FE
330
1E
100
AcDbEntity
  8
ﾚｲﾔ1
  6
Continuous
100
AcDbLine
 10
570.9284741082921
 20
-7.211684656632052
 30
0.0
 11
570.3284741082921
 21
-7.611684656632065
 31
0.0
  0
LINE
  5
5FF
330
1E
100
AcDbEntity
  8
ﾚｲﾔ1
  6
Continuous
100
AcDbLine
 10
570.3284741082921
 20
-7.611684656632065
 30
0.0
 11
569.6784741082921
 21
-8.011684656632063
 31
0.0
  0
LINE
  5
600
330
1E
100
AcDbEntity
  8
ﾚｲﾔ1
  6
Continuous
100
AcDbLine
 10
569.6784741082921
 20
-8.011684656632063
 30
0.0
 11
569.0784741082921
 21
-8.461684656632052
 31
0.0
  0
LINE
  5
601
330
1E
100
AcDbEntity
  8
ﾚｲﾔ1
  6
Continuous
100
AcDbLine
 10
569.0784741082921
 20
-8.461684656632052
 30
0.0
 11
568.4784741082922
 21
-8.861684656632065
 31
0.0
  0
LINE
  5
602
330
1E
100
AcDbEntity
  8
ﾚｲﾔ1
  6
Continuous
100
AcDbLine
 10
568.4784741082922
 20
-8.861684656632065
 30
0.0
 11
567.8284741082921
 21
-9.311684656632067
 31
0.0
  0
LINE
  5
603
330
1E
100
AcDbEntity
  8
ﾚｲﾔ1
  6
Continuous
100
AcDbLine
 10
567.8284741082921
 20
-9.311684656632067
 30
0.0
 11
567.2784741082921
 21
-9.761684656632063
 31
0.0
  0
LINE
  5
604
330
1E
100
AcDbEntity
  8
ﾚｲﾔ1
  6
Continuous
100
AcDbLine
 10
567.2784741082921
 20
-9.761684656632063
 30
0.0
 11
566.6784741082921
 21
-10.26168465663206
 31
0.0
  0
LINE
  5
605
330
1E
100
AcDbEntity
  8
ﾚｲﾔ1
  6
Continuous
100
AcDbLine
 10
566.6784741082921
 20
-10.26168465663206
 30
0.0
 11
566.0784741082921
 21
-10.71168465663205
 31
0.0
  0
LINE
  5
606
330
1E
100
AcDbEntity
  8
ﾚｲﾔ1
  6
Continuous
100
AcDbLine
 10
566.0784741082921
 20
-10.71168465663205
 30
0.0
 11
565.5284741082921
 21
-11.21168465663205
 31
0.0
  0
LINE
  5
607
330
1E
100
AcDbEntity
  8
ﾚｲﾔ1
  6
Continuous
100
AcDbLine
 10
565.5284741082921
 20
-11.21168465663205
 30
0.0
 11
564.9784741082922
 21
-11.71168465663205
 31
0.0
  0
LINE
  5
608
330
1E
100
AcDbEntity
  8
ﾚｲﾔ1
  6
Continuous
100
AcDbLine
 10
564.9784741082922
 20
-11.71168465663205
 30
0.0
 11
564.3784741082922
 21
-12.21168465663205
 31
0.0
  0
LINE
  5
609
330
1E
100
AcDbEntity
  8
ﾚｲﾔ1
  6
Continuous
100
AcDbLine
 10
564.3784741082922
 20
-12.21168465663205
 30
0.0
 11
563.8784741082922
 21
-12.71168465663205
 31
0.0
  0
LINE
  5
60A
330
1E
100
AcDbEntity
  8
ﾚｲﾔ1
  6
Continuous
100
AcDbLine
 10
563.8784741082922
 20
-12.71168465663205
 30
0.0
 11
563.3284741082921
 21
-13.26168465663206
 31
0.0
  0
LINE
  5
60B
330
1E
100
AcDbEntity
  8
ﾚｲﾔ1
  6
Continuous
100
AcDbLine
 10
563.3284741082921
 20
-13.26168465663206
 30
0.0
 11
562.7784741082922
 21
-13.81168465663205
 31
0.0
  0
LINE
  5
60C
330
1E
100
AcDbEntity
  8
ﾚｲﾔ1
  6
Continuous
100
AcDbLine
 10
562.7784741082922
 20
-13.81168465663205
 30
0.0
 11
562.2784741082921
 21
-14.31168465663207
 31
0.0
  0
LINE
  5
60D
330
1E
100
AcDbEntity
  8
ﾚｲﾔ1
  6
Continuous
100
AcDbLine
 10
562.2784741082921
 20
-14.31168465663207
 30
0.0
 11
561.7784741082921
 21
-14.91168465663205
 31
0.0
  0
LINE
  5
60E
330
1E
100
AcDbEntity
  8
ﾚｲﾔ1
  6
Continuous
100
AcDbLine
 10
561.7784741082921
 20
-14.91168465663205
 30
0.0
 11
561.2784741082921
 21
-15.46168465663205
 31
0.0
  0
LINE
  5
60F
330
1E
100
AcDbEntity
  8
ﾚｲﾔ1
  6
Continuous
100
AcDbLine
 10
561.2784741082921
 20
-15.46168465663205
 30
0.0
 11
560.7784741082921
 21
-16.01168465663206
 31
0.0
  0
LINE
  5
610
330
1E
100
AcDbEntity
  8
ﾚｲﾔ1
  6
Continuous
100
AcDbLine
 10
560.7784741082921
 20
-16.01168465663206
 30
0.0
 11
560.3284741082921
 21
-16.61168465663206
 31
0.0
  0
LINE
  5
611
330
1E
100
AcDbEntity
  8
ﾚｲﾔ1
  6
Continuous
100
AcDbLine
 10
560.3284741082921
 20
-16.61168465663206
 30
0.0
 11
559.8284741082921
 21
-17.21168465663205
 31
0.0
  0
LINE
  5
612
330
1E
100
AcDbEntity
  8
ﾚｲﾔ1
  6
Continuous
100
AcDbLine
 10
559.8284741082921
 20
-17.21168465663205
 30
0.0
 11
559.3784741082922
 21
-17.76168465663206
 31
0.0
  0
LINE
  5
613
330
1E
100
AcDbEntity
  8
ﾚｲﾔ1
  6
Continuous
100
AcDbLine
 10
559.3784741082922
 20
-17.76168465663206
 30
0.0
 11
558.9284741082922
 21
-18.41168465663205
 31
0.0
  0
LINE
  5
614
330
1E
100
AcDbEntity
  8
ﾚｲﾔ1
  6
Continuous
100
AcDbLine
 10
558.9284741082922
 20
-18.41168465663205
 30
0.0
 11
558.5284741082921
 21
-19.01168465663206
 31
0.0
  0
LINE
  5
615
330
1E
100
AcDbEntity
  8
ﾚｲﾔ1
  6
Continuous
100
AcDbLine
 10
558.5284741082921
 20
-19.01168465663206
 30
0.0
 11
558.0784741082921
 21
-19.61168465663206
 31
0.0
  0
LINE
  5
616
330
1E
100
AcDbEntity
  8
ﾚｲﾔ1
  6
Continuous
100
AcDbLine
 10
558.0784741082921
 20
-19.61168465663206
 30
0.0
 11
557.6784741082922
 21
-20.26168465663206
 31
0.0
  0
LINE
  5
617
330
1E
100
AcDbEntity
  8
ﾚｲﾔ1
  6
Continuous
100
AcDbLine
 10
557.6784741082922
 20
-20.26168465663206
 30
0.0
 11
557.2784741082921
 21
-20.86168465663206
 31
0.0
  0
LINE
  5
618
330
1E
100
AcDbEntity
  8
ﾚｲﾔ1
  6
Continuous
100
AcDbLine
 10
557.2784741082921
 20
-20.86168465663206
 30
0.0
 11
556.8784741082922
 21
-21.51168465663206
 31
0.0
  0
LINE
  5
619
330
1E
100
AcDbEntity
  8
ﾚｲﾔ1
  6
Continuous
100
AcDbLine
 10
556.8784741082922
 20
-21.51168465663206
 30
0.0
 11
556.4784741082922
 21
-22.16168465663205
 31
0.0
  0
LINE
  5
61A
330
1E
100
AcDbEntity
  8
ﾚｲﾔ1
  6
Continuous
100
AcDbLine
 10
556.4784741082922
 20
-22.16168465663205
 30
0.0
 11
556.1284741082922
 21
-22.81168465663205
 31
0.0
  0
LINE
  5
61B
330
1E
100
AcDbEntity
  8
ﾚｲﾔ1
  6
Continuous
100
AcDbLine
 10
556.1284741082922
 20
-22.81168465663205
 30
0.0
 11
555.7784741082921
 21
-23.46168465663205
 31
0.0
  0
LINE
  5
61C
330
1E
100
AcDbEntity
  8
ﾚｲﾔ1
  6
Continuous
100
AcDbLine
 10
555.7784741082921
 20
-23.46168465663205
 30
0.0
 11
555.4284741082921
 21
-24.16168465663205
 31
0.0
  0
LINE
  5
61D
330
1E
100
AcDbEntity
  8
ﾚｲﾔ1
  6
Continuous
100
AcDbLine
 10
555.4284741082921
 20
-24.16168465663205
 30
0.0
 11
555.0784741082921
 21
-24.81168465663205
 31
0.0
  0
LINE
  5
61E
330
1E
100
AcDbEntity
  8
ﾚｲﾔ1
  6
Continuous
100
AcDbLine
 10
555.0784741082921
 20
-24.81168465663205
 30
0.0
 11
554.7784741082921
 21
-25.51168465663205
 31
0.0
  0
LINE
  5
61F
330
1E
100
AcDbEntity
  8
ﾚｲﾔ1
  6
Continuous
100
AcDbLine
 10
554.7784741082921
 20
-25.51168465663205
 30
0.0
 11
554.4284741082921
 21
-26.16168465663205
 31
0.0
  0
LINE
  5
620
330
1E
100
AcDbEntity
  8
ﾚｲﾔ1
  6
Continuous
100
AcDbLine
 10
554.4284741082921
 20
-26.16168465663205
 30
0.0
 11
554.1284741082922
 21
-26.86168465663205
 31
0.0
  0
LINE
  5
621
330
1E
100
AcDbEntity
  8
ﾚｲﾔ1
  6
Continuous
100
AcDbLine
 10
554.1284741082922
 20
-26.86168465663205
 30
0.0
 11
553.8784741082922
 21
-27.56168465663205
 31
0.0
  0
LINE
  5
622
330
1E
100
AcDbEntity
  8
ﾚｲﾔ1
  6
Continuous
100
AcDbLine
 10
553.8784741082922
 20
-27.56168465663205
 30
0.0
 11
553.5784741082921
 21
-28.26168465663205
 31
0.0
  0
LINE
  5
623
330
1E
100
AcDbEntity
  8
ﾚｲﾔ1
  6
Continuous
100
AcDbLine
 10
553.5784741082921
 20
-28.26168465663205
 30
0.0
 11
553.3284741082921
 21
-28.96168465663206
 31
0.0
  0
LINE
  5
624
330
1E
100
AcDbEntity
  8
ﾚｲﾔ1
  6
Continuous
100
AcDbLine
 10
553.3284741082921
 20
-28.96168465663206
 30
0.0
 11
553.0784741082921
 21
-29.66168465663205
 31
0.0
  0
LINE
  5
625
330
1E
100
AcDbEntity
  8
ﾚｲﾔ1
  6
Continuous
100
AcDbLine
 10
553.0784741082921
 20
-29.66168465663205
 30
0.0
 11
552.8284741082921
 21
-30.36168465663205
 31
0.0
  0
LINE
  5
626
330
1E
100
AcDbEntity
  8
ﾚｲﾔ1
  6
Continuous
100
AcDbLine
 10
552.8284741082921
 20
-30.36168465663205
 30
0.0
 11
552.6284741082922
 21
-31.11168465663205
 31
0.0
  0
LINE
  5
627
330
1E
100
AcDbEntity
  8
ﾚｲﾔ1
  6
Continuous
100
AcDbLine
 10
552.6284741082922
 20
-31.11168465663205
 30
0.0
 11
552.3784741082922
 21
-31.81168465663205
 31
0.0
  0
LINE
  5
628
330
1E
100
AcDbEntity
  8
ﾚｲﾔ1
  6
Continuous
100
AcDbLine
 10
552.3784741082922
 20
-31.81168465663205
 30
0.0
 11
552.1784741082921
 21
-32.51168465663206
 31
0.0
  0
LINE
  5
629
330
1E
100
AcDbEntity
  8
ﾚｲﾔ1
  6
Continuous
100
AcDbLine
 10
552.1784741082921
 20
-32.51168465663206
 30
0.0
 11
552.0284741082921
 21
-33.26168465663206
 31
0.0
  0
LINE
  5
62A
330
1E
100
AcDbEntity
  8
ﾚｲﾔ1
  6
Continuous
100
AcDbLine
 10
552.0284741082921
 20
-33.26168465663206
 30
0.0
 11
551.8284741082921
 21
-34.01168465663206
 31
0.0
  0
LINE
  5
62B
330
1E
100
AcDbEntity
  8
ﾚｲﾔ1
  6
Continuous
100
AcDbLine
 10
551.8284741082921
 20
-34.01168465663206
 30
0.0
 11
551.6784741082921
 21
-34.71168465663206
 31
0.0
  0
LINE
  5
62C
330
1E
100
AcDbEntity
  8
ﾚｲﾔ1
  6
Continuous
100
AcDbLine
 10
551.6784741082921
 20
-34.71168465663206
 30
0.0
 11
551.5284741082921
 21
-35.46168465663206
 31
0.0
  0
LINE
  5
62D
330
1E
100
AcDbEntity
  8
ﾚｲﾔ1
  6
Continuous
100
AcDbLine
 10
551.5284741082921
 20
-35.46168465663206
 30
0.0
 11
551.3784741082922
 21
-36.21168465663206
 31
0.0
  0
LINE
  5
62E
330
1E
100
AcDbEntity
  8
ﾚｲﾔ1
  6
Continuous
100
AcDbLine
 10
551.3784741082922
 20
-36.21168465663206
 30
0.0
 11
551.2784741082922
 21
-36.91168465663205
 31
0.0
  0
LINE
  5
62F
330
1E
100
AcDbEntity
  8
ﾚｲﾔ1
  6
Continuous
100
AcDbLine
 10
551.2784741082922
 20
-36.91168465663205
 30
0.0
 11
551.1284741082922
 21
-37.66168465663205
 31
0.0
  0
LINE
  5
630
330
1E
100
AcDbEntity
  8
ﾚｲﾔ1
  6
Continuous
100
AcDbLine
 10
551.1284741082922
 20
-37.66168465663205
 30
0.0
 11
551.0284741082921
 21
-38.41168465663205
 31
0.0
  0
LINE
  5
631
330
1E
100
AcDbEntity
  8
ﾚｲﾔ1
  6
Continuous
100
AcDbLine
 10
551.0284741082921
 20
-38.41168465663205
 30
0.0
 11
550.9784741082922
 21
-39.16168465663205
 31
0.0
  0
LINE
  5
632
330
1E
100
AcDbEntity
  8
ﾚｲﾔ1
  6
Continuous
100
AcDbLine
 10
550.9784741082922
 20
-39.16168465663205
 30
0.0
 11
550.8784741082922
 21
-39.91168465663205
 31
0.0
  0
LINE
  5
633
330
1E
100
AcDbEntity
  8
ﾚｲﾔ1
  6
Continuous
100
AcDbLine
 10
550.8784741082922
 20
-39.91168465663205
 30
0.0
 11
550.8284741082921
 21
-40.66168465663205
 31
0.0
  0
LINE
  5
634
330
1E
100
AcDbEntity
  8
ﾚｲﾔ1
  6
Continuous
100
AcDbLine
 10
550.8284741082921
 20
-40.66168465663205
 30
0.0
 11
550.7784741082921
 21
-41.41168465663205
 31
0.0
  0
LINE
  5
635
330
1E
100
AcDbEntity
  8
ﾚｲﾔ1
  6
Continuous
100
AcDbLine
 10
550.7784741082921
 20
-41.41168465663205
 30
0.0
 11
550.7784741082921
 21
-42.16168465663205
 31
0.0
  0
LINE
  5
636
330
1E
100
AcDbEntity
  8
ﾚｲﾔ1
  6
Continuous
100
AcDbLine
 10
550.7784741082921
 20
-42.16168465663205
 30
0.0
 11
550.7284741082922
 21
-42.91168465663205
 31
0.0
  0
LINE
  5
637
330
1E
100
AcDbEntity
  8
ﾚｲﾔ1
  6
Continuous
100
AcDbLine
 10
550.7284741082922
 20
-42.91168465663205
 30
0.0
 11
550.7284741082922
 21
-43.66168465663205
 31
0.0
  0
LINE
  5
638
330
1E
100
AcDbEntity
  8
ﾚｲﾔ1
  6
Continuous
100
AcDbLine
 10
550.7284741082922
 20
-43.66168465663205
 30
0.0
 11
550.7284741082922
 21
-44.41168465663205
 31
0.0
  0
LINE
  5
639
330
1E
100
AcDbEntity
  8
ﾚｲﾔ1
  6
Continuous
100
AcDbLine
 10
550.7284741082922
 20
-44.41168465663205
 30
0.0
 11
550.7784741082921
 21
-45.16168465663205
 31
0.0
  0
LINE
  5
63A
330
1E
100
AcDbEntity
  8
ﾚｲﾔ1
  6
Continuous
100
AcDbLine
 10
550.7784741082921
 20
-45.16168465663205
 30
0.0
 11
550.7784741082921
 21
-45.91168465663205
 31
0.0
  0
LINE
  5
63B
330
1E
100
AcDbEntity
  8
ﾚｲﾔ1
  6
Continuous
100
AcDbLine
 10
550.7784741082921
 20
-45.91168465663205
 30
0.0
 11
550.8284741082921
 21
-46.66168465663205
 31
0.0
  0
LINE
  5
63C
330
1E
100
AcDbEntity
  8
ﾚｲﾔ1
  6
Continuous
100
AcDbLine
 10
550.8284741082921
 20
-46.66168465663205
 30
0.0
 11
550.8784741082922
 21
-47.41168465663205
 31
0.0
  0
LINE
  5
63D
330
1E
100
AcDbEntity
  8
ﾚｲﾔ1
  6
Continuous
100
AcDbLine
 10
550.8784741082922
 20
-47.41168465663205
 30
0.0
 11
550.9784741082922
 21
-48.16168465663205
 31
0.0
  0
LINE
  5
63E
330
1E
100
AcDbEntity
  8
ﾚｲﾔ1
  6
Continuous
100
AcDbLine
 10
550.9784741082922
 20
-48.16168465663205
 30
0.0
 11
551.0284741082921
 21
-48.91168465663205
 31
0.0
  0
LINE
  5
63F
330
1E
100
AcDbEntity
  8
ﾚｲﾔ1
  6
Continuous
100
AcDbLine
 10
551.0284741082921
 20
-48.91168465663205
 30
0.0
 11
551.1284741082922
 21
-49.66168465663205
 31
0.0
  0
LINE
  5
640
330
1E
100
AcDbEntity
  8
ﾚｲﾔ1
  6
Continuous
100
AcDbLine
 10
551.1284741082922
 20
-49.66168465663205
 30
0.0
 11
551.2784741082922
 21
-50.41168465663205
 31
0.0
  0
LINE
  5
641
330
1E
100
AcDbEntity
  8
ﾚｲﾔ1
  6
Continuous
100
AcDbLine
 10
551.2784741082922
 20
-50.41168465663205
 30
0.0
 11
551.3784741082922
 21
-51.11168465663205
 31
0.0
  0
LINE
  5
642
330
1E
100
AcDbEntity
  8
ﾚｲﾔ1
  6
Continuous
100
AcDbLine
 10
551.3784741082922
 20
-51.11168465663205
 30
0.0
 11
551.5284741082921
 21
-51.86168465663205
 31
0.0
  0
LINE
  5
643
330
1E
100
AcDbEntity
  8
ﾚｲﾔ1
  6
Continuous
100
AcDbLine
 10
551.5284741082921
 20
-51.86168465663205
 30
0.0
 11
551.6784741082921
 21
-52.61168465663205
 31
0.0
  0
LINE
  5
644
330
1E
100
AcDbEntity
  8
ﾚｲﾔ1
  6
Continuous
100
AcDbLine
 10
551.6784741082921
 20
-52.61168465663205
 30
0.0
 11
551.8284741082921
 21
-53.31168465663205
 31
0.0
  0
LINE
  5
645
330
1E
100
AcDbEntity
  8
ﾚｲﾔ1
  6
Continuous
100
AcDbLine
 10
551.8284741082921
 20
-53.31168465663205
 30
0.0
 11
552.0284741082921
 21
-54.06168465663205
 31
0.0
  0
LINE
  5
646
330
1E
100
AcDbEntity
  8
ﾚｲﾔ1
  6
Continuous
100
AcDbLine
 10
552.0284741082921
 20
-54.06168465663205
 30
0.0
 11
552.1784741082921
 21
-54.81168465663205
 31
0.0
  0
LINE
  5
647
330
1E
100
AcDbEntity
  8
ﾚｲﾔ1
  6
Continuous
100
AcDbLine
 10
552.1784741082921
 20
-54.81168465663205
 30
0.0
 11
552.3784741082922
 21
-55.51168465663206
 31
0.0
  0
LINE
  5
648
330
1E
100
AcDbEntity
  8
ﾚｲﾔ1
  6
Continuous
100
AcDbLine
 10
552.3784741082922
 20
-55.51168465663206
 30
0.0
 11
552.6284741082922
 21
-56.21168365663205
 31
0.0
  0
LINE
  5
649
330
1E
100
AcDbEntity
  8
ﾚｲﾔ1
  6
Continuous
100
AcDbLine
 10
552.6284741082922
 20
-56.21168365663205
 30
0.0
 11
552.8284741082921
 21
-56.96168365663205
 31
0.0
  0
LINE
  5
64A
330
1E
100
AcDbEntity
  8
ﾚｲﾔ1
  6
Continuous
100
AcDbLine
 10
552.8284741082921
 20
-56.96168365663205
 30
0.0
 11
553.0784741082921
 21
-57.66168365663206
 31
0.0
  0
LINE
  5
64B
330
1E
100
AcDbEntity
  8
ﾚｲﾔ1
  6
Continuous
100
AcDbLine
 10
553.0784741082921
 20
-57.66168365663206
 30
0.0
 11
553.3284741082921
 21
-58.36168365663205
 31
0.0
  0
LINE
  5
64C
330
1E
100
AcDbEntity
  8
ﾚｲﾔ1
  6
Continuous
100
AcDbLine
 10
553.3284741082921
 20
-58.36168365663205
 30
0.0
 11
553.5784741082921
 21
-59.06168365663206
 31
0.0
  0
LINE
  5
64D
330
1E
100
AcDbEntity
  8
ﾚｲﾔ1
  6
Continuous
100
AcDbLine
 10
553.5784741082921
 20
-59.06168365663206
 30
0.0
 11
553.8784741082922
 21
-59.76168365663205
 31
0.0
  0
LINE
  5
64E
330
1E
100
AcDbEntity
  8
ﾚｲﾔ1
  6
Continuous
100
AcDbLine
 10
553.8784741082922
 20
-59.76168365663205
 30
0.0
 11
554.1284741082922
 21
-60.46168365663205
 31
0.0
  0
LINE
  5
64F
330
1E
100
AcDbEntity
  8
ﾚｲﾔ1
  6
Continuous
100
AcDbLine
 10
554.1284741082922
 20
-60.46168365663205
 30
0.0
 11
554.4284741082921
 21
-61.16168365663206
 31
0.0
  0
LINE
  5
650
330
1E
100
AcDbEntity
  8
ﾚｲﾔ1
  6
Continuous
100
AcDbLine
 10
554.4284741082921
 20
-61.16168365663206
 30
0.0
 11
554.7784741082921
 21
-61.81168365663206
 31
0.0
  0
LINE
  5
651
330
1E
100
AcDbEntity
  8
ﾚｲﾔ1
  6
Continuous
100
AcDbLine
 10
554.7784741082921
 20
-61.81168365663206
 30
0.0
 11
555.0784741082921
 21
-62.51168365663205
 31
0.0
  0
LINE
  5
652
330
1E
100
AcDbEntity
  8
ﾚｲﾔ1
  6
Continuous
100
AcDbLine
 10
555.0784741082921
 20
-62.51168365663205
 30
0.0
 11
555.4284741082921
 21
-63.16168365663205
 31
0.0
  0
LINE
  5
653
330
1E
100
AcDbEntity
  8
ﾚｲﾔ1
  6
Continuous
100
AcDbLine
 10
555.4284741082921
 20
-63.16168365663205
 30
0.0
 11
555.7784741082921
 21
-63.86168365663205
 31
0.0
  0
LINE
  5
654
330
1E
100
AcDbEntity
  8
ﾚｲﾔ1
  6
Continuous
100
AcDbLine
 10
555.7784741082921
 20
-63.86168365663205
 30
0.0
 11
556.1284741082922
 21
-64.51168365663206
 31
0.0
  0
LINE
  5
655
330
1E
100
AcDbEntity
  8
ﾚｲﾔ1
  6
Continuous
100
AcDbLine
 10
556.1284741082922
 20
-64.51168365663206
 30
0.0
 11
556.4784741082922
 21
-65.16168365663205
 31
0.0
  0
LINE
  5
656
330
1E
100
AcDbEntity
  8
ﾚｲﾔ1
  6
Continuous
100
AcDbLine
 10
556.4784741082922
 20
-65.16168365663205
 30
0.0
 11
556.8784741082922
 21
-65.81168365663206
 31
0.0
  0
LINE
  5
657
330
1E
100
AcDbEntity
  8
ﾚｲﾔ1
  6
Continuous
100
AcDbLine
 10
556.8784741082922
 20
-65.81168365663206
 30
0.0
 11
557.2784741082921
 21
-66.46168365663206
 31
0.0
  0
LINE
  5
658
330
1E
100
AcDbEntity
  8
ﾚｲﾔ1
  6
Continuous
100
AcDbLine
 10
557.2784741082921
 20
-66.46168365663206
 30
0.0
 11
557.6784741082922
 21
-67.06168365663206
 31
0.0
  0
LINE
  5
659
330
1E
100
AcDbEntity
  8
ﾚｲﾔ1
  6
Continuous
100
AcDbLine
 10
557.6784741082922
 20
-67.06168365663206
 30
0.0
 11
558.0784741082921
 21
-67.71168365663206
 31
0.0
  0
LINE
  5
65A
330
1E
100
AcDbEntity
  8
ﾚｲﾔ1
  6
Continuous
100
AcDbLine
 10
558.0784741082921
 20
-67.71168365663206
 30
0.0
 11
558.5284741082921
 21
-68.31168365663206
 31
0.0
  0
LINE
  5
65B
330
1E
100
AcDbEntity
  8
ﾚｲﾔ1
  6
Continuous
100
AcDbLine
 10
558.5284741082921
 20
-68.31168365663206
 30
0.0
 11
558.9284741082922
 21
-68.91168365663205
 31
0.0
  0
LINE
  5
65C
330
1E
100
AcDbEntity
  8
ﾚｲﾔ1
  6
Continuous
100
AcDbLine
 10
558.9284741082922
 20
-68.91168365663205
 30
0.0
 11
559.3784741082922
 21
-69.56168365663206
 31
0.0
  0
LINE
  5
65D
330
1E
100
AcDbEntity
  8
ﾚｲﾔ1
  6
Continuous
100
AcDbLine
 10
559.3784741082922
 20
-69.56168365663206
 30
0.0
 11
559.8284741082921
 21
-70.11168365663205
 31
0.0
  0
LINE
  5
65E
330
1E
100
AcDbEntity
  8
ﾚｲﾔ1
  6
Continuous
100
AcDbLine
 10
559.8284741082921
 20
-70.11168365663205
 30
0.0
 11
560.3284741082921
 21
-70.71168365663206
 31
0.0
  0
LINE
  5
65F
330
1E
100
AcDbEntity
  8
ﾚｲﾔ1
  6
Continuous
100
AcDbLine
 10
560.3284741082921
 20
-70.71168365663206
 30
0.0
 11
560.7784741082921
 21
-71.31168365663206
 31
0.0
  0
LINE
  5
660
330
1E
100
AcDbEntity
  8
ﾚｲﾔ1
  6
Continuous
100
AcDbLine
 10
560.7784741082921
 20
-71.31168365663206
 30
0.0
 11
561.2784741082921
 21
-71.86168365663205
 31
0.0
  0
LINE
  5
661
330
1E
100
AcDbEntity
  8
ﾚｲﾔ1
  6
Continuous
100
AcDbLine
 10
561.2784741082921
 20
-71.86168365663205
 30
0.0
 11
561.7784741082921
 21
-72.41168365663205
 31
0.0
  0
LINE
  5
662
330
1E
100
AcDbEntity
  8
ﾚｲﾔ1
  6
Continuous
100
AcDbLine
 10
561.7784741082921
 20
-72.41168365663205
 30
0.0
 11
562.2784741082921
 21
-73.01168365663206
 31
0.0
  0
LINE
  5
663
330
1E
100
AcDbEntity
  8
ﾚｲﾔ1
  6
Continuous
100
AcDbLine
 10
562.2784741082921
 20
-73.01168365663206
 30
0.0
 11
562.7784741082922
 21
-73.51168365663206
 31
0.0
  0
LINE
  5
664
330
1E
100
AcDbEntity
  8
ﾚｲﾔ1
  6
Continuous
100
AcDbLine
 10
562.7784741082922
 20
-73.51168365663206
 30
0.0
 11
563.3284741082921
 21
-74.06168365663206
 31
0.0
  0
LINE
  5
665
330
1E
100
AcDbEntity
  8
ﾚｲﾔ1
  6
Continuous
100
AcDbLine
 10
563.3284741082921
 20
-74.06168365663206
 30
0.0
 11
563.8784741082922
 21
-74.61168365663205
 31
0.0
  0
LINE
  5
666
330
1E
100
AcDbEntity
  8
ﾚｲﾔ1
  6
Continuous
100
AcDbLine
 10
563.8784741082922
 20
-74.61168365663205
 30
0.0
 11
564.3784741082922
 21
-75.11168365663205
 31
0.0
  0
LINE
  5
667
330
1E
100
AcDbEntity
  8
ﾚｲﾔ1
  6
Continuous
100
AcDbLine
 10
564.3784741082922
 20
-75.11168365663205
 30
0.0
 11
564.9784741082922
 21
-75.61168365663205
 31
0.0
  0
LINE
  5
668
330
1E
100
AcDbEntity
  8
ﾚｲﾔ1
  6
Continuous
100
AcDbLine
 10
564.9784741082922
 20
-75.61168365663205
 30
0.0
 11
565.5284741082921
 21
-76.11168365663205
 31
0.0
  0
LINE
  5
669
330
1E
100
AcDbEntity
  8
ﾚｲﾔ1
  6
Continuous
100
AcDbLine
 10
565.5284741082921
 20
-76.11168365663205
 30
0.0
 11
566.0784741082921
 21
-76.61168365663205
 31
0.0
  0
LINE
  5
66A
330
1E
100
AcDbEntity
  8
ﾚｲﾔ1
  6
Continuous
100
AcDbLine
 10
566.0784741082921
 20
-76.61168365663205
 30
0.0
 11
566.6784741082921
 21
-77.06168365663206
 31
0.0
  0
LINE
  5
66B
330
1E
100
AcDbEntity
  8
ﾚｲﾔ1
  6
Continuous
100
AcDbLine
 10
566.6784741082921
 20
-77.06168365663206
 30
0.0
 11
567.2784741082921
 21
-77.56168365663206
 31
0.0
  0
LINE
  5
66C
330
1E
100
AcDbEntity
  8
ﾚｲﾔ1
  6
Continuous
100
AcDbLine
 10
567.2784741082921
 20
-77.56168365663206
 30
0.0
 11
567.8284741082921
 21
-78.01168365663206
 31
0.0
  0
LINE
  5
66D
330
1E
100
AcDbEntity
  8
ﾚｲﾔ1
  6
Continuous
100
AcDbLine
 10
567.8284741082921
 20
-78.01168365663206
 30
0.0
 11
568.4784741082922
 21
-78.46168365663206
 31
0.0
  0
LINE
  5
66E
330
1E
100
AcDbEntity
  8
ﾚｲﾔ1
  6
Continuous
100
AcDbLine
 10
568.4784741082922
 20
-78.46168365663206
 30
0.0
 11
569.0784741082921
 21
-78.86168365663205
 31
0.0
  0
LINE
  5
66F
330
1E
100
AcDbEntity
  8
ﾚｲﾔ1
  6
Continuous
100
AcDbLine
 10
569.0784741082921
 20
-78.86168365663205
 30
0.0
 11
569.6784741082921
 21
-79.31168365663206
 31
0.0
  0
LINE
  5
670
330
1E
100
AcDbEntity
  8
ﾚｲﾔ1
  6
Continuous
100
AcDbLine
 10
569.6784741082921
 20
-79.31168365663206
 30
0.0
 11
570.3284741082921
 21
-79.71168365663206
 31
0.0
  0
LINE
  5
671
330
1E
100
AcDbEntity
  8
ﾚｲﾔ1
  6
Continuous
100
AcDbLine
 10
570.3284741082921
 20
-79.71168365663206
 30
0.0
 11
570.9284741082921
 21
-80.11168365663205
 31
0.0
  0
LINE
  5
672
330
1E
100
AcDbEntity
  8
ﾚｲﾔ1
  6
Continuous
100
AcDbLine
 10
570.9284741082921
 20
-80.11168365663205
 30
0.0
 11
571.5784741082921
 21
-80.51168365663206
 31
0.0
  0
LINE
  5
673
330
1E
100
AcDbEntity
  8
ﾚｲﾔ1
  6
Continuous
100
AcDbLine
 10
571.5784741082921
 20
-80.51168365663206
 30
0.0
 11
572.2284741082922
 21
-80.91168365663205
 31
0.0
  0
LINE
  5
674
330
1E
100
AcDbEntity
  8
ﾚｲﾔ1
  6
Continuous
100
AcDbLine
 10
572.2284741082922
 20
-80.91168365663205
 30
0.0
 11
572.8784741082922
 21
-81.26168365663206
 31
0.0
  0
LINE
  5
675
330
1E
100
AcDbEntity
  8
ﾚｲﾔ1
  6
Continuous
100
AcDbLine
 10
572.8784741082922
 20
-81.26168365663206
 30
0.0
 11
573.5284741082921
 21
-81.61168365663205
 31
0.0
  0
LINE
  5
676
330
1E
100
AcDbEntity
  8
ﾚｲﾔ1
  6
Continuous
100
AcDbLine
 10
573.5284741082921
 20
-81.61168365663205
 30
0.0
 11
574.2284741082922
 21
-81.96168365663206
 31
0.0
  0
LINE
  5
677
330
1E
100
AcDbEntity
  8
ﾚｲﾔ1
  6
Continuous
100
AcDbLine
 10
574.2284741082922
 20
-81.96168365663206
 30
0.0
 11
574.8784741082922
 21
-82.31168365663206
 31
0.0
  0
LINE
  5
678
330
1E
100
AcDbEntity
  8
ﾚｲﾔ1
  6
Continuous
100
AcDbLine
 10
574.8784741082922
 20
-82.31168365663206
 30
0.0
 11
575.5784741082921
 21
-82.61168365663205
 31
0.0
  0
LINE
  5
679
330
1E
100
AcDbEntity
  8
ﾚｲﾔ1
  6
Continuous
100
AcDbLine
 10
575.5784741082921
 20
-82.61168365663205
 30
0.0
 11
576.2284741082922
 21
-82.96168365663206
 31
0.0
  0
LINE
  5
67A
330
1E
100
AcDbEntity
  8
ﾚｲﾔ1
  6
Continuous
100
AcDbLine
 10
576.2284741082922
 20
-82.96168365663206
 30
0.0
 11
576.9284741082922
 21
-83.26168365663206
 31
0.0
  0
LINE
  5
67B
330
1E
100
AcDbEntity
  8
ﾚｲﾔ1
  6
Continuous
100
AcDbLine
 10
576.9284741082922
 20
-83.26168365663206
 30
0.0
 11
577.6284741082922
 21
-83.51168365663206
 31
0.0
  0
LINE
  5
67C
330
1E
100
AcDbEntity
  8
ﾚｲﾔ1
  6
Continuous
100
AcDbLine
 10
577.6284741082922
 20
-83.51168365663206
 30
0.0
 11
578.3284741082921
 21
-83.81168365663206
 31
0.0
  0
LINE
  5
67D
330
1E
100
AcDbEntity
  8
ﾚｲﾔ1
  6
Continuous
100
AcDbLine
 10
578.3284741082921
 20
-83.81168365663206
 30
0.0
 11
579.0284741082921
 21
-84.06168365663206
 31
0.0
  0
LINE
  5
67E
330
1E
100
AcDbEntity
  8
ﾚｲﾔ1
  6
Continuous
100
AcDbLine
 10
579.0284741082921
 20
-84.06168365663206
 30
0.0
 11
579.7284741082922
 21
-84.31168365663206
 31
0.0
  0
LINE
  5
67F
330
1E
100
AcDbEntity
  8
ﾚｲﾔ1
  6
Continuous
100
AcDbLine
 10
579.7284741082922
 20
-84.31168365663206
 30
0.0
 11
580.4284741082921
 21
-84.56168365663206
 31
0.0
  0
LINE
  5
680
330
1E
100
AcDbEntity
  8
ﾚｲﾔ1
  6
Continuous
100
AcDbLine
 10
580.4284741082921
 20
-84.56168365663206
 30
0.0
 11
581.1784741082921
 21
-84.76168365663206
 31
0.0
  0
LINE
  5
681
330
1E
100
AcDbEntity
  8
ﾚｲﾔ1
  6
Continuous
100
AcDbLine
 10
581.1784741082921
 20
-84.76168365663206
 30
0.0
 11
581.8784741082922
 21
-85.01168365663206
 31
0.0
  0
LINE
  5
682
330
1E
100
AcDbEntity
  8
ﾚｲﾔ1
  6
Continuous
100
AcDbLine
 10
581.8784741082922
 20
-85.01168365663206
 30
0.0
 11
582.5784741082921
 21
-85.21168365663206
 31
0.0
  0
LINE
  5
683
330
1E
100
AcDbEntity
  8
ﾚｲﾔ1
  6
Continuous
100
AcDbLine
 10
582.5784741082921
 20
-85.21168365663206
 30
0.0
 11
583.3284741082921
 21
-85.36168365663205
 31
0.0
  0
LINE
  5
684
330
1E
100
AcDbEntity
  8
ﾚｲﾔ1
  6
Continuous
100
AcDbLine
 10
583.3284741082921
 20
-85.36168365663205
 30
0.0
 11
584.0784741082921
 21
-85.56168365663206
 31
0.0
  0
LINE
  5
685
330
1E
100
AcDbEntity
  8
ﾚｲﾔ1
  6
Continuous
100
AcDbLine
 10
584.0784741082921
 20
-85.56168365663206
 30
0.0
 11
584.7784741082921
 21
-85.71168365663206
 31
0.0
  0
LINE
  5
686
330
1E
100
AcDbEntity
  8
ﾚｲﾔ1
  6
Continuous
100
AcDbLine
 10
584.7784741082921
 20
-85.71168365663206
 30
0.0
 11
585.5284741082921
 21
-85.86168365663205
 31
0.0
  0
LINE
  5
687
330
1E
100
AcDbEntity
  8
ﾚｲﾔ1
  6
Continuous
100
AcDbLine
 10
585.5284741082921
 20
-85.86168365663205
 30
0.0
 11
586.2784741082921
 21
-86.01168365663206
 31
0.0
  0
LINE
  5
688
330
1E
100
AcDbEntity
  8
ﾚｲﾔ1
  6
Continuous
100
AcDbLine
 10
586.2784741082921
 20
-86.01168365663206
 30
0.0
 11
586.9784741082922
 21
-86.11168365663205
 31
0.0
  0
LINE
  5
689
330
1E
100
AcDbEntity
  8
ﾚｲﾔ1
  6
Continuous
100
AcDbLine
 10
586.9784741082922
 20
-86.11168365663205
 30
0.0
 11
587.7284741082922
 21
-86.26168365663206
 31
0.0
  0
LINE
  5
68A
330
1E
100
AcDbEntity
  8
ﾚｲﾔ1
  6
Continuous
100
AcDbLine
 10
587.7284741082922
 20
-86.26168365663206
 30
0.0
 11
588.4784741082922
 21
-86.36168365663205
 31
0.0
  0
LINE
  5
68B
330
1E
100
AcDbEntity
  8
ﾚｲﾔ1
  6
Continuous
100
AcDbLine
 10
588.4784741082922
 20
-86.36168365663205
 30
0.0
 11
589.2284741082922
 21
-86.41168365663205
 31
0.0
  0
LINE
  5
68C
330
1E
100
AcDbEntity
  8
ﾚｲﾔ1
  6
Continuous
100
AcDbLine
 10
589.2284741082922
 20
-86.41168365663205
 30
0.0
 11
589.9784741082922
 21
-86.51168365663206
 31
0.0
  0
LINE
  5
68D
330
1E
100
AcDbEntity
  8
ﾚｲﾔ1
  6
Continuous
100
AcDbLine
 10
589.9784741082922
 20
-86.51168365663206
 30
0.0
 11
590.7284741082922
 21
-86.56168365663206
 31
0.0
  0
LINE
  5
68E
330
1E
100
AcDbEntity
  8
ﾚｲﾔ1
  6
Continuous
100
AcDbLine
 10
590.7284741082922
 20
-86.56168365663206
 30
0.0
 11
591.4784741082922
 21
-86.61168365663205
 31
0.0
  0
LINE
  5
68F
330
1E
100
AcDbEntity
  8
ﾚｲﾔ1
  6
Continuous
100
AcDbLine
 10
591.4784741082922
 20
-86.61168365663205
 30
0.0
 11
592.2284741082922
 21
-86.61168365663205
 31
0.0
  0
LINE
  5
690
330
1E
100
AcDbEntity
  8
ﾚｲﾔ1
  6
Continuous
100
AcDbLine
 10
592.2284741082922
 20
-86.61168365663205
 30
0.0
 11
592.9784741082922
 21
-86.66168365663205
 31
0.0
  0
LINE
  5
691
330
1E
100
AcDbEntity
  8
ﾚｲﾔ1
  6
Continuous
100
AcDbLine
 10
592.9784741082922
 20
-86.66168365663205
 30
0.0
 11
593.7284741082922
 21
-86.66168365663205
 31
0.0
  0
LINE
  5
692
330
1E
100
AcDbEntity
  8
ﾚｲﾔ1
  6
Continuous
100
AcDbLine
 10
593.7284741082922
 20
-86.66168365663205
 30
0.0
 11
594.4784741082922
 21
-86.66168365663205
 31
0.0
  0
LINE
  5
693
330
1E
100
AcDbEntity
  8
ﾚｲﾔ1
  6
Continuous
100
AcDbLine
 10
594.4784741082922
 20
-86.66168365663205
 30
0.0
 11
595.2284741082922
 21
-86.61168365663205
 31
0.0
  0
LINE
  5
694
330
1E
100
AcDbEntity
  8
ﾚｲﾔ1
  6
Continuous
100
AcDbLine
 10
595.2284741082922
 20
-86.61168365663205
 30
0.0
 11
595.9784741082922
 21
-86.61168365663205
 31
0.0
  0
LINE
  5
695
330
1E
100
AcDbEntity
  8
ﾚｲﾔ1
  6
Continuous
100
AcDbLine
 10
595.9784741082922
 20
-86.61168365663205
 30
0.0
 11
596.7284741082922
 21
-86.56168365663206
 31
0.0
  0
LINE
  5
696
330
1E
100
AcDbEntity
  8
ﾚｲﾔ1
  6
Continuous
100
AcDbLine
 10
596.7284741082922
 20
-86.56168365663206
 30
0.0
 11
597.4784741082922
 21
-86.51168365663206
 31
0.0
  0
LINE
  5
697
330
1E
100
AcDbEntity
  8
ﾚｲﾔ1
  6
Continuous
100
AcDbLine
 10
597.4784741082922
 20
-86.51168365663206
 30
0.0
 11
598.2284741082922
 21
-86.41168365663205
 31
0.0
  0
LINE
  5
698
330
1E
100
AcDbEntity
  8
ﾚｲﾔ1
  6
Continuous
100
AcDbLine
 10
598.2284741082922
 20
-86.41168365663205
 30
0.0
 11
598.9784741082922
 21
-86.36168365663205
 31
0.0
  0
LINE
  5
699
330
1E
100
AcDbEntity
  8
ﾚｲﾔ1
  6
Continuous
100
AcDbLine
 10
598.9784741082922
 20
-86.36168365663205
 30
0.0
 11
599.7284741082922
 21
-86.26168365663206
 31
0.0
  0
LINE
  5
69A
330
1E
100
AcDbEntity
  8
ﾚｲﾔ1
  6
Continuous
100
AcDbLine
 10
599.7284741082922
 20
-86.26168365663206
 30
0.0
 11
600.4784741082922
 21
-86.11168365663205
 31
0.0
  0
LINE
  5
69B
330
1E
100
AcDbEntity
  8
ﾚｲﾔ1
  6
Continuous
100
AcDbLine
 10
600.4784741082922
 20
-86.11168365663205
 30
0.0
 11
601.1784741082921
 21
-86.01168365663206
 31
0.0
  0
LINE
  5
69C
330
1E
100
AcDbEntity
  8
ﾚｲﾔ1
  6
Continuous
100
AcDbLine
 10
601.1784741082921
 20
-86.01168365663206
 30
0.0
 11
601.9284741082921
 21
-85.86168365663205
 31
0.0
  0
LINE
  5
69D
330
1E
100
AcDbEntity
  8
ﾚｲﾔ1
  6
Continuous
100
AcDbLine
 10
601.9284741082921
 20
-85.86168365663205
 30
0.0
 11
602.6784741082921
 21
-85.71168365663206
 31
0.0
  0
LINE
  5
69E
330
1E
100
AcDbEntity
  8
ﾚｲﾔ1
  6
Continuous
100
AcDbLine
 10
602.6784741082921
 20
-85.71168365663206
 30
0.0
 11
603.3784741082922
 21
-85.56168365663206
 31
0.0
  0
LINE
  5
69F
330
1E
100
AcDbEntity
  8
ﾚｲﾔ1
  6
Continuous
100
AcDbLine
 10
603.3784741082922
 20
-85.56168365663206
 30
0.0
 11
604.1284741082922
 21
-85.36168365663205
 31
0.0
  0
LINE
  5
6A0
330
1E
100
AcDbEntity
  8
ﾚｲﾔ1
  6
Continuous
100
AcDbLine
 10
604.1284741082922
 20
-85.36168365663205
 30
0.0
 11
604.8784741082922
 21
-85.21168365663206
 31
0.0
  0
LINE
  5
6A1
330
1E
100
AcDbEntity
  8
ﾚｲﾔ1
  6
Continuous
100
AcDbLine
 10
604.8784741082922
 20
-85.21168365663206
 30
0.0
 11
605.5784741082921
 21
-85.01168365663206
 31
0.0
  0
LINE
  5
6A2
330
1E
100
AcDbEntity
  8
ﾚｲﾔ1
  6
Continuous
100
AcDbLine
 10
605.5784741082921
 20
-85.01168365663206
 30
0.0
 11
606.2784741082921
 21
-84.76168365663206
 31
0.0
  0
LINE
  5
6A3
330
1E
100
AcDbEntity
  8
ﾚｲﾔ1
  6
Continuous
100
AcDbLine
 10
606.2784741082921
 20
-84.76168365663206
 30
0.0
 11
607.0284741082921
 21
-84.56168365663206
 31
0.0
  0
LINE
  5
6A4
330
1E
100
AcDbEntity
  8
ﾚｲﾔ1
  6
Continuous
100
AcDbLine
 10
607.0284741082921
 20
-84.56168365663206
 30
0.0
 11
607.7284741082922
 21
-84.31168365663206
 31
0.0
  0
LINE
  5
6A5
330
1E
100
AcDbEntity
  8
ﾚｲﾔ1
  6
Continuous
100
AcDbLine
 10
607.7284741082922
 20
-84.31168365663206
 30
0.0
 11
608.4284741082921
 21
-84.06168365663206
 31
0.0
  0
LINE
  5
6A6
330
1E
100
AcDbEntity
  8
ﾚｲﾔ1
  6
Continuous
100
AcDbLine
 10
608.4284741082921
 20
-84.06168365663206
 30
0.0
 11
609.1284741082922
 21
-83.81168365663206
 31
0.0
  0
LINE
  5
6A7
330
1E
100
AcDbEntity
  8
ﾚｲﾔ1
  6
Continuous
100
AcDbLine
 10
609.1284741082922
 20
-83.81168365663206
 30
0.0
 11
609.8284741082921
 21
-83.51168365663206
 31
0.0
  0
LINE
  5
6A8
330
1E
100
AcDbEntity
  8
ﾚｲﾔ1
  6
Continuous
100
AcDbLine
 10
609.8284741082921
 20
-83.51168365663206
 30
0.0
 11
610.5284741082921
 21
-83.26168365663206
 31
0.0
  0
LINE
  5
6A9
330
1E
100
AcDbEntity
  8
ﾚｲﾔ1
  6
Continuous
100
AcDbLine
 10
610.5284741082921
 20
-83.26168365663206
 30
0.0
 11
611.2284741082922
 21
-82.96168365663206
 31
0.0
  0
LINE
  5
6AA
330
1E
100
AcDbEntity
  8
ﾚｲﾔ1
  6
Continuous
100
AcDbLine
 10
611.2284741082922
 20
-82.96168365663206
 30
0.0
 11
611.8784741082922
 21
-82.61168365663205
 31
0.0
  0
LINE
  5
6AB
330
1E
100
AcDbEntity
  8
ﾚｲﾔ1
  6
Continuous
100
AcDbLine
 10
611.8784741082922
 20
-82.61168365663205
 30
0.0
 11
612.5784741082921
 21
-82.31168365663206
 31
0.0
  0
LINE
  5
6AC
330
1E
100
AcDbEntity
  8
ﾚｲﾔ1
  6
Continuous
100
AcDbLine
 10
612.5784741082921
 20
-82.31168365663206
 30
0.0
 11
613.2284741082922
 21
-81.96168365663206
 31
0.0
  0
LINE
  5
6AD
330
1E
100
AcDbEntity
  8
ﾚｲﾔ1
  6
Continuous
100
AcDbLine
 10
613.2284741082922
 20
-81.96168365663206
 30
0.0
 11
613.9284741082921
 21
-81.61168365663205
 31
0.0
  0
LINE
  5
6AE
330
1E
100
AcDbEntity
  8
ﾚｲﾔ1
  6
Continuous
100
AcDbLine
 10
613.9284741082921
 20
-81.61168365663205
 30
0.0
 11
614.5784741082921
 21
-81.26168365663206
 31
0.0
  0
LINE
  5
6AF
330
1E
100
AcDbEntity
  8
ﾚｲﾔ1
  6
Continuous
100
AcDbLine
 10
614.5784741082921
 20
-81.26168365663206
 30
0.0
 11
615.2284741082922
 21
-80.91168365663205
 31
0.0
  0
LINE
  5
6B0
330
1E
100
AcDbEntity
  8
ﾚｲﾔ1
  6
Continuous
100
AcDbLine
 10
615.2284741082922
 20
-80.91168365663205
 30
0.0
 11
615.8784741082922
 21
-80.51168365663206
 31
0.0
  0
LINE
  5
6B1
330
1E
100
AcDbEntity
  8
ﾚｲﾔ1
  6
Continuous
100
AcDbLine
 10
615.8784741082922
 20
-80.51168365663206
 30
0.0
 11
616.5284741082921
 21
-80.11168365663205
 31
0.0
  0
LINE
  5
6B2
330
1E
100
AcDbEntity
  8
ﾚｲﾔ1
  6
Continuous
100
AcDbLine
 10
616.5284741082921
 20
-80.11168365663205
 30
0.0
 11
617.1284741082922
 21
-79.71168365663206
 31
0.0
  0
LINE
  5
6B3
330
1E
100
AcDbEntity
  8
ﾚｲﾔ1
  6
Continuous
100
AcDbLine
 10
617.1284741082922
 20
-79.71168365663206
 30
0.0
 11
617.7784741082921
 21
-79.31168365663206
 31
0.0
  0
LINE
  5
6B4
330
1E
100
AcDbEntity
  8
ﾚｲﾔ1
  6
Continuous
100
AcDbLine
 10
617.7784741082921
 20
-79.31168365663206
 30
0.0
 11
618.3784741082922
 21
-78.86168365663205
 31
0.0
  0
LINE
  5
6B5
330
1E
100
AcDbEntity
  8
ﾚｲﾔ1
  6
Continuous
100
AcDbLine
 10
618.3784741082922
 20
-78.86168365663205
 30
0.0
 11
618.9784741082922
 21
-78.46168365663206
 31
0.0
  0
LINE
  5
6B6
330
1E
100
AcDbEntity
  8
ﾚｲﾔ1
  6
Continuous
100
AcDbLine
 10
618.9784741082922
 20
-78.46168365663206
 30
0.0
 11
619.6284741082922
 21
-78.01168365663206
 31
0.0
  0
LINE
  5
6B7
330
1E
100
AcDbEntity
  8
ﾚｲﾔ1
  6
Continuous
100
AcDbLine
 10
619.6284741082922
 20
-78.01168365663206
 30
0.0
 11
620.1784741082921
 21
-77.56168365663206
 31
0.0
  0
LINE
  5
6B8
330
1E
100
AcDbEntity
  8
ﾚｲﾔ1
  6
Continuous
100
AcDbLine
 10
620.1784741082921
 20
-77.56168365663206
 30
0.0
 11
620.7784741082921
 21
-77.06168365663206
 31
0.0
  0
LINE
  5
6B9
330
1E
100
AcDbEntity
  8
ﾚｲﾔ1
  6
Continuous
100
AcDbLine
 10
620.7784741082921
 20
-77.06168365663206
 30
0.0
 11
621.3784741082922
 21
-76.61168365663205
 31
0.0
  0
LINE
  5
6BA
330
1E
100
AcDbEntity
  8
ﾚｲﾔ1
  6
Continuous
100
AcDbLine
 10
621.3784741082922
 20
-76.61168365663205
 30
0.0
 11
621.9284741082921
 21
-76.11168365663205
 31
0.0
  0
LINE
  5
6BB
330
1E
100
AcDbEntity
  8
ﾚｲﾔ1
  6
Continuous
100
AcDbLine
 10
621.9284741082921
 20
-76.11168365663205
 30
0.0
 11
622.4784741082922
 21
-75.61168365663205
 31
0.0
  0
LINE
  5
6BC
330
1E
100
AcDbEntity
  8
ﾚｲﾔ1
  6
Continuous
100
AcDbLine
 10
622.4784741082922
 20
-75.61168365663205
 30
0.0
 11
623.0784741082922
 21
-75.11168365663205
 31
0.0
  0
LINE
  5
6BD
330
1E
100
AcDbEntity
  8
ﾚｲﾔ1
  6
Continuous
100
AcDbLine
 10
623.0784741082922
 20
-75.11168365663205
 30
0.0
 11
623.5784741082921
 21
-74.61168365663205
 31
0.0
  0
LINE
  5
6BE
330
1E
100
AcDbEntity
  8
ﾚｲﾔ1
  6
Continuous
100
AcDbLine
 10
623.5784741082921
 20
-74.61168365663205
 30
0.0
 11
624.1284741082922
 21
-74.06168365663206
 31
0.0
  0
LINE
  5
6BF
330
1E
100
AcDbEntity
  8
ﾚｲﾔ1
  6
Continuous
100
AcDbLine
 10
624.1284741082922
 20
-74.06168365663206
 30
0.0
 11
624.6784741082921
 21
-73.51168365663206
 31
0.0
  0
LINE
  5
6C0
330
1E
100
AcDbEntity
  8
ﾚｲﾔ1
  6
Continuous
100
AcDbLine
 10
624.6784741082921
 20
-73.51168365663206
 30
0.0
 11
625.1784741082921
 21
-73.01168365663206
 31
0.0
  0
LINE
  5
6C1
330
1E
100
AcDbEntity
  8
ﾚｲﾔ1
  6
Continuous
100
AcDbLine
 10
625.1784741082921
 20
-73.01168365663206
 30
0.0
 11
625.6784741082921
 21
-72.41168365663205
 31
0.0
  0
LINE
  5
6C2
330
1E
100
AcDbEntity
  8
ﾚｲﾔ1
  6
Continuous
100
AcDbLine
 10
625.6784741082921
 20
-72.41168365663205
 30
0.0
 11
626.1784741082921
 21
-71.86168365663205
 31
0.0
  0
LINE
  5
6C3
330
1E
100
AcDbEntity
  8
ﾚｲﾔ1
  6
Continuous
100
AcDbLine
 10
626.1784741082921
 20
-71.86168365663205
 30
0.0
 11
626.6784741082921
 21
-71.31168365663206
 31
0.0
  0
LINE
  5
6C4
330
1E
100
AcDbEntity
  8
ﾚｲﾔ1
  6
Continuous
100
AcDbLine
 10
626.6784741082921
 20
-71.31168365663206
 30
0.0
 11
627.1284741082922
 21
-70.71168365663206
 31
0.0
  0
LINE
  5
6C5
330
1E
100
AcDbEntity
  8
ﾚｲﾔ1
  6
Continuous
100
AcDbLine
 10
627.1284741082922
 20
-70.71168365663206
 30
0.0
 11
627.6284741082922
 21
-70.11168365663205
 31
0.0
  0
LINE
  5
6C6
330
1E
100
AcDbEntity
  8
ﾚｲﾔ1
  6
Continuous
100
AcDbLine
 10
627.6284741082922
 20
-70.11168365663205
 30
0.0
 11
628.0784741082922
 21
-69.56168365663206
 31
0.0
  0
LINE
  5
6C7
330
1E
100
AcDbEntity
  8
ﾚｲﾔ1
  6
Continuous
100
AcDbLine
 10
628.0784741082922
 20
-69.56168365663206
 30
0.0
 11
628.5284741082921
 21
-68.91168365663205
 31
0.0
  0
LINE
  5
6C8
330
1E
100
AcDbEntity
  8
ﾚｲﾔ1
  6
Continuous
100
AcDbLine
 10
628.5284741082921
 20
-68.91168365663205
 30
0.0
 11
628.9284741082921
 21
-68.31168365663206
 31
0.0
  0
LINE
  5
6C9
330
1E
100
AcDbEntity
  8
ﾚｲﾔ1
  6
Continuous
100
AcDbLine
 10
628.9284741082921
 20
-68.31168365663206
 30
0.0
 11
629.3784741082922
 21
-67.71168365663206
 31
0.0
  0
LINE
  5
6CA
330
1E
100
AcDbEntity
  8
ﾚｲﾔ1
  6
Continuous
100
AcDbLine
 10
629.3784741082922
 20
-67.71168365663206
 30
0.0
 11
629.7784741082921
 21
-67.06168365663206
 31
0.0
  0
LINE
  5
6CB
330
1E
100
AcDbEntity
  8
ﾚｲﾔ1
  6
Continuous
100
AcDbLine
 10
629.7784741082921
 20
-67.06168365663206
 30
0.0
 11
630.1784741082921
 21
-66.46168365663206
 31
0.0
  0
LINE
  5
6CC
330
1E
100
AcDbEntity
  8
ﾚｲﾔ1
  6
Continuous
100
AcDbLine
 10
630.1784741082921
 20
-66.46168365663206
 30
0.0
 11
630.5784741082922
 21
-65.81168365663206
 31
0.0
  0
LINE
  5
6CD
330
1E
100
AcDbEntity
  8
ﾚｲﾔ1
  6
Continuous
100
AcDbLine
 10
630.5784741082922
 20
-65.81168365663206
 30
0.0
 11
630.9784741082922
 21
-65.16168365663205
 31
0.0
  0
LINE
  5
6CE
330
1E
100
AcDbEntity
  8
ﾚｲﾔ1
  6
Continuous
100
AcDbLine
 10
630.9784741082922
 20
-65.16168365663205
 30
0.0
 11
631.3284741082921
 21
-64.51168365663206
 31
0.0
  0
LINE
  5
6CF
330
1E
100
AcDbEntity
  8
ﾚｲﾔ1
  6
Continuous
100
AcDbLine
 10
631.3284741082921
 20
-64.51168365663206
 30
0.0
 11
631.6784741082921
 21
-63.86168365663205
 31
0.0
  0
LINE
  5
6D0
330
1E
100
AcDbEntity
  8
ﾚｲﾔ1
  6
Continuous
100
AcDbLine
 10
631.6784741082921
 20
-63.86168365663205
 30
0.0
 11
632.0284741082921
 21
-63.16168365663205
 31
0.0
  0
LINE
  5
6D1
330
1E
100
AcDbEntity
  8
ﾚｲﾔ1
  6
Continuous
100
AcDbLine
 10
632.0284741082921
 20
-63.16168365663205
 30
0.0
 11
632.3784741082922
 21
-62.51168365663205
 31
0.0
  0
LINE
  5
6D2
330
1E
100
AcDbEntity
  8
ﾚｲﾔ1
  6
Continuous
100
AcDbLine
 10
632.3784741082922
 20
-62.51168365663205
 30
0.0
 11
632.6784741082921
 21
-61.81168365663206
 31
0.0
  0
LINE
  5
6D3
330
1E
100
AcDbEntity
  8
ﾚｲﾔ1
  6
Continuous
100
AcDbLine
 10
632.6784741082921
 20
-61.81168365663206
 30
0.0
 11
633.0284741082921
 21
-61.16168365663206
 31
0.0
  0
LINE
  5
6D4
330
1E
100
AcDbEntity
  8
ﾚｲﾔ1
  6
Continuous
100
AcDbLine
 10
633.0284741082921
 20
-61.16168365663206
 30
0.0
 11
633.3284741082921
 21
-60.46168365663205
 31
0.0
  0
LINE
  5
6D5
330
1E
100
AcDbEntity
  8
ﾚｲﾔ1
  6
Continuous
100
AcDbLine
 10
633.3284741082921
 20
-60.46168365663205
 30
0.0
 11
633.5784741082921
 21
-59.76168365663205
 31
0.0
  0
LINE
  5
6D6
330
1E
100
AcDbEntity
  8
ﾚｲﾔ1
  6
Continuous
100
AcDbLine
 10
633.5784741082921
 20
-59.76168365663205
 30
0.0
 11
633.8784741082922
 21
-59.06168365663206
 31
0.0
  0
LINE
  5
6D7
330
1E
100
AcDbEntity
  8
ﾚｲﾔ1
  6
Continuous
100
AcDbLine
 10
633.8784741082922
 20
-59.06168365663206
 30
0.0
 11
634.1284741082922
 21
-58.36168365663205
 31
0.0
  0
LINE
  5
6D8
330
1E
100
AcDbEntity
  8
ﾚｲﾔ1
  6
Continuous
100
AcDbLine
 10
634.1284741082922
 20
-58.36168365663205
 30
0.0
 11
634.3784741082922
 21
-57.66168365663206
 31
0.0
  0
LINE
  5
6D9
330
1E
100
AcDbEntity
  8
ﾚｲﾔ1
  6
Continuous
100
AcDbLine
 10
634.3784741082922
 20
-57.66168365663206
 30
0.0
 11
634.6284741082922
 21
-56.96168365663205
 31
0.0
  0
LINE
  5
6DA
330
1E
100
AcDbEntity
  8
ﾚｲﾔ1
  6
Continuous
100
AcDbLine
 10
634.6284741082922
 20
-56.96168365663205
 30
0.0
 11
634.8284741082921
 21
-56.21168365663205
 31
0.0
  0
LINE
  5
6DB
330
1E
100
AcDbEntity
  8
ﾚｲﾔ1
  6
Continuous
100
AcDbLine
 10
634.8284741082921
 20
-56.21168365663205
 30
0.0
 11
635.0784741082921
 21
-55.51168465663206
 31
0.0
  0
LINE
  5
6DC
330
1E
100
AcDbEntity
  8
ﾚｲﾔ1
  6
Continuous
100
AcDbLine
 10
635.0784741082921
 20
-55.51168465663206
 30
0.0
 11
635.2784741082921
 21
-54.81168465663205
 31
0.0
  0
LINE
  5
6DD
330
1E
100
AcDbEntity
  8
ﾚｲﾔ1
  6
Continuous
100
AcDbLine
 10
635.2784741082921
 20
-54.81168465663205
 30
0.0
 11
635.4284741082921
 21
-54.06168465663205
 31
0.0
  0
LINE
  5
6DE
330
1E
100
AcDbEntity
  8
ﾚｲﾔ1
  6
Continuous
100
AcDbLine
 10
635.4284741082921
 20
-54.06168465663205
 30
0.0
 11
635.6284741082922
 21
-53.31168465663205
 31
0.0
  0
LINE
  5
6DF
330
1E
100
AcDbEntity
  8
ﾚｲﾔ1
  6
Continuous
100
AcDbLine
 10
635.6284741082922
 20
-53.31168465663205
 30
0.0
 11
635.7784741082921
 21
-52.61168465663205
 31
0.0
  0
LINE
  5
6E0
330
1E
100
AcDbEntity
  8
ﾚｲﾔ1
  6
Continuous
100
AcDbLine
 10
635.7784741082921
 20
-52.61168465663205
 30
0.0
 11
635.9284741082921
 21
-51.86168465663205
 31
0.0
  0
LINE
  5
6E1
330
1E
100
AcDbEntity
  8
ﾚｲﾔ1
  6
Continuous
100
AcDbLine
 10
635.9284741082921
 20
-51.86168465663205
 30
0.0
 11
636.0784741082921
 21
-51.11168465663205
 31
0.0
  0
LINE
  5
6E2
330
1E
100
AcDbEntity
  8
ﾚｲﾔ1
  6
Continuous
100
AcDbLine
 10
636.0784741082921
 20
-51.11168465663205
 30
0.0
 11
636.1784741082921
 21
-50.41168465663205
 31
0.0
  0
LINE
  5
6E3
330
1E
100
AcDbEntity
  8
ﾚｲﾔ1
  6
Continuous
100
AcDbLine
 10
636.1784741082921
 20
-50.41168465663205
 30
0.0
 11
636.3284741082921
 21
-49.66168465663205
 31
0.0
  0
LINE
  5
6E4
330
1E
100
AcDbEntity
  8
ﾚｲﾔ1
  6
Continuous
100
AcDbLine
 10
636.3284741082921
 20
-49.66168465663205
 30
0.0
 11
636.4284741082921
 21
-48.91168465663205
 31
0.0
  0
LINE
  5
6E5
330
1E
100
AcDbEntity
  8
ﾚｲﾔ1
  6
Continuous
100
AcDbLine
 10
636.4284741082921
 20
-48.91168465663205
 30
0.0
 11
636.4784741082922
 21
-48.16168465663205
 31
0.0
  0
LINE
  5
6E6
330
1E
100
AcDbEntity
  8
ﾚｲﾔ1
  6
Continuous
100
AcDbLine
 10
636.4784741082922
 20
-48.16168465663205
 30
0.0
 11
636.5784741082921
 21
-47.41168465663205
 31
0.0
  0
LINE
  5
6E7
330
1E
100
AcDbEntity
  8
ﾚｲﾔ1
  6
Continuous
100
AcDbLine
 10
636.5784741082921
 20
-47.41168465663205
 30
0.0
 11
636.6284741082922
 21
-46.66168465663205
 31
0.0
  0
LINE
  5
6E8
330
1E
100
AcDbEntity
  8
ﾚｲﾔ1
  6
Continuous
100
AcDbLine
 10
636.6284741082922
 20
-46.66168465663205
 30
0.0
 11
636.6784741082921
 21
-45.91168465663205
 31
0.0
  0
LINE
  5
6E9
330
1E
100
AcDbEntity
  8
ﾚｲﾔ1
  6
Continuous
100
AcDbLine
 10
636.6784741082921
 20
-45.91168465663205
 30
0.0
 11
636.6784741082921
 21
-45.16168465663205
 31
0.0
  0
LINE
  5
6EA
330
1E
100
AcDbEntity
  8
ﾚｲﾔ1
  6
Continuous
100
AcDbLine
 10
636.6784741082921
 20
-45.16168465663205
 30
0.0
 11
636.7284741082922
 21
-44.41168465663205
 31
0.0
  0
LINE
  5
6EB
330
1E
100
AcDbEntity
  8
ﾚｲﾔ1
  6
Continuous
100
AcDbLine
 10
636.7284741082922
 20
-44.41168465663205
 30
0.0
 11
636.7284741082922
 21
-43.66168465663205
 31
0.0
  0
LINE
  5
6EC
330
1E
100
AcDbEntity
  8
ﾚｲﾔ1
  6
Continuous
100
AcDbLine
 10
631.7284741082922
 20
-43.66168465663205
 30
0.0
 11
631.7284741082922
 21
-43.01168465663206
 31
0.0
  0
LINE
  5
6ED
330
1E
100
AcDbEntity
  8
ﾚｲﾔ1
  6
Continuous
100
AcDbLine
 10
631.7284741082922
 20
-43.01168465663206
 30
0.0
 11
631.7284741082922
 21
-42.31168465663205
 31
0.0
  0
LINE
  5
6EE
330
1E
100
AcDbEntity
  8
ﾚｲﾔ1
  6
Continuous
100
AcDbLine
 10
631.7284741082922
 20
-42.31168465663205
 30
0.0
 11
631.6784741082921
 21
-41.66168465663205
 31
0.0
  0
LINE
  5
6EF
330
1E
100
AcDbEntity
  8
ﾚｲﾔ1
  6
Continuous
100
AcDbLine
 10
631.6784741082921
 20
-41.66168465663205
 30
0.0
 11
631.6284741082922
 21
-41.01168465663206
 31
0.0
  0
LINE
  5
6F0
330
1E
100
AcDbEntity
  8
ﾚｲﾔ1
  6
Continuous
100
AcDbLine
 10
631.6284741082922
 20
-41.01168465663206
 30
0.0
 11
631.5784741082921
 21
-40.36168465663205
 31
0.0
  0
LINE
  5
6F1
330
1E
100
AcDbEntity
  8
ﾚｲﾔ1
  6
Continuous
100
AcDbLine
 10
631.5784741082921
 20
-40.36168465663205
 30
0.0
 11
631.5284741082921
 21
-39.71168465663206
 31
0.0
  0
LINE
  5
6F2
330
1E
100
AcDbEntity
  8
ﾚｲﾔ1
  6
Continuous
100
AcDbLine
 10
631.5284741082921
 20
-39.71168465663206
 30
0.0
 11
631.4284741082921
 21
-39.01168465663206
 31
0.0
  0
LINE
  5
6F3
330
1E
100
AcDbEntity
  8
ﾚｲﾔ1
  6
Continuous
100
AcDbLine
 10
631.4284741082921
 20
-39.01168465663206
 30
0.0
 11
631.3784741082922
 21
-38.36168465663205
 31
0.0
  0
LINE
  5
6F4
330
1E
100
AcDbEntity
  8
ﾚｲﾔ1
  6
Continuous
100
AcDbLine
 10
631.3784741082922
 20
-38.36168465663205
 30
0.0
 11
631.2784741082921
 21
-37.71168465663206
 31
0.0
  0
LINE
  5
6F5
330
1E
100
AcDbEntity
  8
ﾚｲﾔ1
  6
Continuous
100
AcDbLine
 10
631.2784741082921
 20
-37.71168465663206
 30
0.0
 11
631.1284741082922
 21
-37.06168465663205
 31
0.0
  0
LINE
  5
6F6
330
1E
100
AcDbEntity
  8
ﾚｲﾔ1
  6
Continuous
100
AcDbLine
 10
631.1284741082922
 20
-37.06168465663205
 30
0.0
 11
631.0284741082921
 21
-36.41168465663205
 31
0.0
  0
LINE
  5
6F7
330
1E
100
AcDbEntity
  8
ﾚｲﾔ1
  6
Continuous
100
AcDbLine
 10
631.0284741082921
 20
-36.41168465663205
 30
0.0
 11
630.8784741082922
 21
-35.76168465663206
 31
0.0
  0
LINE
  5
6F8
330
1E
100
AcDbEntity
  8
ﾚｲﾔ1
  6
Continuous
100
AcDbLine
 10
630.8784741082922
 20
-35.76168465663206
 30
0.0
 11
630.7784741082921
 21
-35.11168465663205
 31
0.0
  0
LINE
  5
6F9
330
1E
100
AcDbEntity
  8
ﾚｲﾔ1
  6
Continuous
100
AcDbLine
 10
630.7784741082921
 20
-35.11168465663205
 30
0.0
 11
630.5784741082922
 21
-34.46168465663206
 31
0.0
  0
LINE
  5
6FA
330
1E
100
AcDbEntity
  8
ﾚｲﾔ1
  6
Continuous
100
AcDbLine
 10
630.5784741082922
 20
-34.46168465663206
 30
0.0
 11
630.4284741082921
 21
-33.81168465663205
 31
0.0
  0
LINE
  5
6FB
330
1E
100
AcDbEntity
  8
ﾚｲﾔ1
  6
Continuous
100
AcDbLine
 10
630.4284741082921
 20
-33.81168465663205
 30
0.0
 11
630.2784741082921
 21
-33.21168465663206
 31
0.0
  0
LINE
  5
6FC
330
1E
100
AcDbEntity
  8
ﾚｲﾔ1
  6
Continuous
100
AcDbLine
 10
630.2784741082921
 20
-33.21168465663206
 30
0.0
 11
630.0784741082921
 21
-32.56168465663205
 31
0.0
  0
LINE
  5
6FD
330
1E
100
AcDbEntity
  8
ﾚｲﾔ1
  6
Continuous
100
AcDbLine
 10
630.0784741082921
 20
-32.56168465663205
 30
0.0
 11
629.8784741082922
 21
-31.91168465663205
 31
0.0
  0
LINE
  5
6FE
330
1E
100
AcDbEntity
  8
ﾚｲﾔ1
  6
Continuous
100
AcDbLine
 10
629.8784741082922
 20
-31.91168465663205
 30
0.0
 11
629.6784741082921
 21
-31.31168465663205
 31
0.0
  0
LINE
  5
6FF
330
1E
100
AcDbEntity
  8
ﾚｲﾔ1
  6
Continuous
100
AcDbLine
 10
629.6784741082921
 20
-31.31168465663205
 30
0.0
 11
629.4284741082921
 21
-30.66168465663205
 31
0.0
  0
LINE
  5
700
330
1E
100
AcDbEntity
  8
ﾚｲﾔ1
  6
Continuous
100
AcDbLine
 10
629.4284741082921
 20
-30.66168465663205
 30
0.0
 11
629.2284741082922
 21
-30.06168465663205
 31
0.0
  0
LINE
  5
701
330
1E
100
AcDbEntity
  8
ﾚｲﾔ1
  6
Continuous
100
AcDbLine
 10
629.2284741082922
 20
-30.06168465663205
 30
0.0
 11
628.9784741082922
 21
-29.41168465663205
 31
0.0
  0
LINE
  5
702
330
1E
100
AcDbEntity
  8
ﾚｲﾔ1
  6
Continuous
100
AcDbLine
 10
628.9784741082922
 20
-29.41168465663205
 30
0.0
 11
628.7284741082922
 21
-28.81168465663205
 31
0.0
  0
LINE
  5
703
330
1E
100
AcDbEntity
  8
ﾚｲﾔ1
  6
Continuous
100
AcDbLine
 10
628.7284741082922
 20
-28.81168465663205
 30
0.0
 11
628.4284741082921
 21
-28.21168465663206
 31
0.0
  0
LINE
  5
704
330
1E
100
AcDbEntity
  8
ﾚｲﾔ1
  6
Continuous
100
AcDbLine
 10
628.4284741082921
 20
-28.21168465663206
 30
0.0
 11
628.1784741082921
 21
-27.61168465663205
 31
0.0
  0
LINE
  5
705
330
1E
100
AcDbEntity
  8
ﾚｲﾔ1
  6
Continuous
100
AcDbLine
 10
628.1784741082921
 20
-27.61168465663205
 30
0.0
 11
627.8784741082922
 21
-27.01168465663205
 31
0.0
  0
LINE
  5
706
330
1E
100
AcDbEntity
  8
ﾚｲﾔ1
  6
Continuous
100
AcDbLine
 10
627.8784741082922
 20
-27.01168465663205
 30
0.0
 11
627.5784741082921
 21
-26.41168465663205
 31
0.0
  0
LINE
  5
707
330
1E
100
AcDbEntity
  8
ﾚｲﾔ1
  6
Continuous
100
AcDbLine
 10
627.5784741082921
 20
-26.41168465663205
 30
0.0
 11
627.2784741082921
 21
-25.81168465663205
 31
0.0
  0
LINE
  5
708
330
1E
100
AcDbEntity
  8
ﾚｲﾔ1
  6
Continuous
100
AcDbLine
 10
627.2784741082921
 20
-25.81168465663205
 30
0.0
 11
626.9784741082922
 21
-25.26168465663205
 31
0.0
  0
LINE
  5
709
330
1E
100
AcDbEntity
  8
ﾚｲﾔ1
  6
Continuous
100
AcDbLine
 10
626.9784741082922
 20
-25.26168465663205
 30
0.0
 11
626.6284741082922
 21
-24.66168465663205
 31
0.0
  0
LINE
  5
70A
330
1E
100
AcDbEntity
  8
ﾚｲﾔ1
  6
Continuous
100
AcDbLine
 10
626.6284741082922
 20
-24.66168465663205
 30
0.0
 11
626.2784741082921
 21
-24.11168465663206
 31
0.0
  0
LINE
  5
70B
330
1E
100
AcDbEntity
  8
ﾚｲﾔ1
  6
Continuous
100
AcDbLine
 10
626.2784741082921
 20
-24.11168465663206
 30
0.0
 11
625.9784741082922
 21
-23.51168465663206
 31
0.0
  0
LINE
  5
70C
330
1E
100
AcDbEntity
  8
ﾚｲﾔ1
  6
Continuous
100
AcDbLine
 10
625.9784741082922
 20
-23.51168465663206
 30
0.0
 11
625.5784741082922
 21
-22.96168465663204
 31
0.0
  0
LINE
  5
70D
330
1E
100
AcDbEntity
  8
ﾚｲﾔ1
  6
Continuous
100
AcDbLine
 10
625.5784741082922
 20
-22.96168465663204
 30
0.0
 11
625.2284741082922
 21
-22.41168465663205
 31
0.0
  0
LINE
  5
70E
330
1E
100
AcDbEntity
  8
ﾚｲﾔ1
  6
Continuous
100
AcDbLine
 10
625.2284741082922
 20
-22.41168465663205
 30
0.0
 11
624.8784741082922
 21
-21.86168465663206
 31
0.0
  0
LINE
  5
70F
330
1E
100
AcDbEntity
  8
ﾚｲﾔ1
  6
Continuous
100
AcDbLine
 10
624.8784741082922
 20
-21.86168465663206
 30
0.0
 11
624.4784741082922
 21
-21.31168465663205
 31
0.0
  0
LINE
  5
710
330
1E
100
AcDbEntity
  8
ﾚｲﾔ1
  6
Continuous
100
AcDbLine
 10
624.4784741082922
 20
-21.31168465663205
 30
0.0
 11
624.0784741082921
 21
-20.81168465663205
 31
0.0
  0
LINE
  5
711
330
1E
100
AcDbEntity
  8
ﾚｲﾔ1
  6
Continuous
100
AcDbLine
 10
624.0784741082921
 20
-20.81168465663205
 30
0.0
 11
623.6784741082921
 21
-20.26168465663206
 31
0.0
  0
LINE
  5
712
330
1E
100
AcDbEntity
  8
ﾚｲﾔ1
  6
Continuous
100
AcDbLine
 10
623.6784741082921
 20
-20.26168465663206
 30
0.0
 11
623.2784741082921
 21
-19.76168465663206
 31
0.0
  0
LINE
  5
713
330
1E
100
AcDbEntity
  8
ﾚｲﾔ1
  6
Continuous
100
AcDbLine
 10
623.2784741082921
 20
-19.76168465663206
 30
0.0
 11
622.8284741082921
 21
-19.21168465663204
 31
0.0
  0
LINE
  5
714
330
1E
100
AcDbEntity
  8
ﾚｲﾔ1
  6
Continuous
100
AcDbLine
 10
622.8284741082921
 20
-19.21168465663204
 30
0.0
 11
622.4284741082921
 21
-18.71168465663205
 31
0.0
  0
LINE
  5
715
330
1E
100
AcDbEntity
  8
ﾚｲﾔ1
  6
Continuous
100
AcDbLine
 10
622.4284741082921
 20
-18.71168465663205
 30
0.0
 11
621.9784741082922
 21
-18.21168465663205
 31
0.0
  0
LINE
  5
716
330
1E
100
AcDbEntity
  8
ﾚｲﾔ1
  6
Continuous
100
AcDbLine
 10
621.9784741082922
 20
-18.21168465663205
 30
0.0
 11
621.5284741082921
 21
-17.76168465663206
 31
0.0
  0
LINE
  5
717
330
1E
100
AcDbEntity
  8
ﾚｲﾔ1
  6
Continuous
100
AcDbLine
 10
621.5284741082921
 20
-17.76168465663206
 30
0.0
 11
621.0784741082921
 21
-17.26168465663206
 31
0.0
  0
LINE
  5
718
330
1E
100
AcDbEntity
  8
ﾚｲﾔ1
  6
Continuous
100
AcDbLine
 10
621.0784741082921
 20
-17.26168465663206
 30
0.0
 11
620.5784741082921
 21
-16.81168465663205
 31
0.0
  0
LINE
  5
719
330
1E
100
AcDbEntity
  8
ﾚｲﾔ1
  6
Continuous
100
AcDbLine
 10
620.5784741082921
 20
-16.81168465663205
 30
0.0
 11
620.1284741082922
 21
-16.31168465663205
 31
0.0
  0
LINE
  5
71A
330
1E
100
AcDbEntity
  8
ﾚｲﾔ1
  6
Continuous
100
AcDbLine
 10
620.1284741082922
 20
-16.31168465663205
 30
0.0
 11
619.6284741082922
 21
-15.86168465663206
 31
0.0
  0
LINE
  5
71B
330
1E
100
AcDbEntity
  8
ﾚｲﾔ1
  6
Continuous
100
AcDbLine
 10
619.6284741082922
 20
-15.86168465663206
 30
0.0
 11
619.1784741082921
 21
-15.41168465663205
 31
0.0
  0
LINE
  5
71C
330
1E
100
AcDbEntity
  8
ﾚｲﾔ1
  6
Continuous
100
AcDbLine
 10
619.1784741082921
 20
-15.41168465663205
 30
0.0
 11
618.6784741082921
 21
-14.96168465663205
 31
0.0
  0
LINE
  5
71D
330
1E
100
AcDbEntity
  8
ﾚｲﾔ1
  6
Continuous
100
AcDbLine
 10
618.6784741082921
 20
-14.96168465663205
 30
0.0
 11
618.1784741082921
 21
-14.56168465663205
 31
0.0
  0
LINE
  5
71E
330
1E
100
AcDbEntity
  8
ﾚｲﾔ1
  6
Continuous
100
AcDbLine
 10
618.1784741082921
 20
-14.56168465663205
 30
0.0
 11
617.6284741082922
 21
-14.11168465663206
 31
0.0
  0
LINE
  5
71F
330
1E
100
AcDbEntity
  8
ﾚｲﾔ1
  6
Continuous
100
AcDbLine
 10
617.6284741082922
 20
-14.11168465663206
 30
0.0
 11
617.1284741082922
 21
-13.71168465663205
 31
0.0
  0
LINE
  5
720
330
1E
100
AcDbEntity
  8
ﾚｲﾔ1
  6
Continuous
100
AcDbLine
 10
617.1284741082922
 20
-13.71168465663205
 30
0.0
 11
616.5784741082921
 21
-13.31168465663205
 31
0.0
  0
LINE
  5
721
330
1E
100
AcDbEntity
  8
ﾚｲﾔ1
  6
Continuous
100
AcDbLine
 10
616.5784741082921
 20
-13.31168465663205
 30
0.0
 11
616.0784741082921
 21
-12.91168465663205
 31
0.0
  0
LINE
  5
722
330
1E
100
AcDbEntity
  8
ﾚｲﾔ1
  6
Continuous
100
AcDbLine
 10
616.0784741082921
 20
-12.91168465663205
 30
0.0
 11
615.5284741082921
 21
-12.51168465663206
 31
0.0
  0
LINE
  5
723
330
1E
100
AcDbEntity
  8
ﾚｲﾔ1
  6
Continuous
100
AcDbLine
 10
615.5284741082921
 20
-12.51168465663206
 30
0.0
 11
614.9784741082922
 21
-12.16168465663206
 31
0.0
  0
LINE
  5
724
330
1E
100
AcDbEntity
  8
ﾚｲﾔ1
  6
Continuous
100
AcDbLine
 10
614.9784741082922
 20
-12.16168465663206
 30
0.0
 11
614.4284741082921
 21
-11.81168465663207
 31
0.0
  0
LINE
  5
725
330
1E
100
AcDbEntity
  8
ﾚｲﾔ1
  6
Continuous
100
AcDbLine
 10
614.4284741082921
 20
-11.81168465663207
 30
0.0
 11
613.8784741082922
 21
-11.41168465663206
 31
0.0
  0
LINE
  5
726
330
1E
100
AcDbEntity
  8
ﾚｲﾔ1
  6
Continuous
100
AcDbLine
 10
613.8784741082922
 20
-11.41168465663206
 30
0.0
 11
613.2784741082921
 21
-11.11168465663206
 31
0.0
  0
LINE
  5
727
330
1E
100
AcDbEntity
  8
ﾚｲﾔ1
  6
Continuous
100
AcDbLine
 10
613.2784741082921
 20
-11.11168465663206
 30
0.0
 11
612.7284741082922
 21
-10.76168465663206
 31
0.0
  0
LINE
  5
728
330
1E
100
AcDbEntity
  8
ﾚｲﾔ1
  6
Continuous
100
AcDbLine
 10
612.7284741082922
 20
-10.76168465663206
 30
0.0
 11
612.1284741082922
 21
-10.41168465663205
 31
0.0
  0
LINE
  5
729
330
1E
100
AcDbEntity
  8
ﾚｲﾔ1
  6
Continuous
100
AcDbLine
 10
612.1284741082922
 20
-10.41168465663205
 30
0.0
 11
611.5784741082921
 21
-10.11168465663206
 31
0.0
  0
LINE
  5
72A
330
1E
100
AcDbEntity
  8
ﾚｲﾔ1
  6
Continuous
100
AcDbLine
 10
611.5784741082921
 20
-10.11168465663206
 30
0.0
 11
610.9784741082922
 21
-9.811684656632053
 31
0.0
  0
LINE
  5
72B
330
1E
100
AcDbEntity
  8
ﾚｲﾔ1
  6
Continuous
100
AcDbLine
 10
610.9784741082922
 20
-9.811684656632053
 30
0.0
 11
610.3784741082922
 21
-9.511684656632056
 31
0.0
  0
LINE
  5
72C
330
1E
100
AcDbEntity
  8
ﾚｲﾔ1
  6
Continuous
100
AcDbLine
 10
610.3784741082922
 20
-9.511684656632056
 30
0.0
 11
609.7784741082921
 21
-9.211684656632052
 31
0.0
  0
LINE
  5
72D
330
1E
100
AcDbEntity
  8
ﾚｲﾔ1
  6
Continuous
100
AcDbLine
 10
609.7784741082921
 20
-9.211684656632052
 30
0.0
 11
609.1784741082921
 21
-8.961684656632052
 31
0.0
  0
LINE
  5
72E
330
1E
100
AcDbEntity
  8
ﾚｲﾔ1
  6
Continuous
100
AcDbLine
 10
609.1784741082921
 20
-8.961684656632052
 30
0.0
 11
608.5784741082921
 21
-8.661684656632055
 31
0.0
  0
LINE
  5
72F
330
1E
100
AcDbEntity
  8
ﾚｲﾔ1
  6
Continuous
100
AcDbLine
 10
608.5784741082921
 20
-8.661684656632055
 30
0.0
 11
607.9784741082922
 21
-8.411684656632062
 31
0.0
  0
LINE
  5
730
330
1E
100
AcDbEntity
  8
ﾚｲﾔ1
  6
Continuous
100
AcDbLine
 10
607.9784741082922
 20
-8.411684656632062
 30
0.0
 11
607.3284741082921
 21
-8.161684656632055
 31
0.0
  0
LINE
  5
731
330
1E
100
AcDbEntity
  8
ﾚｲﾔ1
  6
Continuous
100
AcDbLine
 10
607.3284741082921
 20
-8.161684656632055
 30
0.0
 11
606.7284741082922
 21
-7.961684656632052
 31
0.0
  0
LINE
  5
732
330
1E
100
AcDbEntity
  8
ﾚｲﾔ1
  6
Continuous
100
AcDbLine
 10
606.7284741082922
 20
-7.961684656632052
 30
0.0
 11
606.0784741082921
 21
-7.711684656632052
 31
0.0
  0
LINE
  5
733
330
1E
100
AcDbEntity
  8
ﾚｲﾔ1
  6
Continuous
100
AcDbLine
 10
606.0784741082921
 20
-7.711684656632052
 30
0.0
 11
605.4784741082922
 21
-7.511684656632056
 31
0.0
  0
LINE
  5
734
330
1E
100
AcDbEntity
  8
ﾚｲﾔ1
  6
Continuous
100
AcDbLine
 10
605.4784741082922
 20
-7.511684656632056
 30
0.0
 11
604.8284741082921
 21
-7.311684656632053
 31
0.0
  0
LINE
  5
735
330
1E
100
AcDbEntity
  8
ﾚｲﾔ1
  6
Continuous
100
AcDbLine
 10
604.8284741082921
 20
-7.311684656632053
 30
0.0
 11
604.1784741082921
 21
-7.111684656632065
 31
0.0
  0
LINE
  5
736
330
1E
100
AcDbEntity
  8
ﾚｲﾔ1
  6
Continuous
100
AcDbLine
 10
604.1784741082921
 20
-7.111684656632065
 30
0.0
 11
603.5784741082921
 21
-6.961684656632052
 31
0.0
  0
LINE
  5
737
330
1E
100
AcDbEntity
  8
ﾚｲﾔ1
  6
Continuous
100
AcDbLine
 10
603.5784741082921
 20
-6.961684656632052
 30
0.0
 11
602.9284741082921
 21
-6.811684656632053
 31
0.0
  0
LINE
  5
738
330
1E
100
AcDbEntity
  8
ﾚｲﾔ1
  6
Continuous
100
AcDbLine
 10
602.9284741082921
 20
-6.811684656632053
 30
0.0
 11
602.2784741082922
 21
-6.611684656632058
 31
0.0
  0
LINE
  5
739
330
1E
100
AcDbEntity
  8
ﾚｲﾔ1
  6
Continuous
100
AcDbLine
 10
602.2784741082922
 20
-6.611684656632058
 30
0.0
 11
601.6284741082922
 21
-6.511684656632056
 31
0.0
  0
LINE
  5
73A
330
1E
100
AcDbEntity
  8
ﾚｲﾔ1
  6
Continuous
100
AcDbLine
 10
601.6284741082922
 20
-6.511684656632056
 30
0.0
 11
600.9784741082922
 21
-6.361684656632065
 31
0.0
  0
LINE
  5
73B
330
1E
100
AcDbEntity
  8
ﾚｲﾔ1
  6
Continuous
100
AcDbLine
 10
600.9784741082922
 20
-6.361684656632065
 30
0.0
 11
600.3284741082921
 21
-6.261684656632056
 31
0.0
  0
LINE
  5
73C
330
1E
100
AcDbEntity
  8
ﾚｲﾔ1
  6
Continuous
100
AcDbLine
 10
600.3284741082921
 20
-6.261684656632056
 30
0.0
 11
599.6784741082921
 21
-6.111684656632058
 31
0.0
  0
LINE
  5
73D
330
1E
100
AcDbEntity
  8
ﾚｲﾔ1
  6
Continuous
100
AcDbLine
 10
599.6784741082921
 20
-6.111684656632058
 30
0.0
 11
599.0284741082921
 21
-6.011684656632063
 31
0.0
  0
LINE
  5
73E
330
1E
100
AcDbEntity
  8
ﾚｲﾔ1
  6
Continuous
100
AcDbLine
 10
599.0284741082921
 20
-6.011684656632063
 30
0.0
 11
598.3784741082922
 21
-5.961684656632052
 31
0.0
  0
LINE
  5
73F
330
1E
100
AcDbEntity
  8
ﾚｲﾔ1
  6
Continuous
100
AcDbLine
 10
598.3784741082922
 20
-5.961684656632052
 30
0.0
 11
597.6784741082921
 21
-5.861684656632065
 31
0.0
  0
LINE
  5
740
330
1E
100
AcDbEntity
  8
ﾚｲﾔ1
  6
Continuous
100
AcDbLine
 10
597.6784741082921
 20
-5.861684656632065
 30
0.0
 11
597.0284741082921
 21
-5.811684656632053
 31
0.0
  0
LINE
  5
741
330
1E
100
AcDbEntity
  8
ﾚｲﾔ1
  6
Continuous
100
AcDbLine
 10
597.0284741082921
 20
-5.811684656632053
 30
0.0
 11
596.3784741082922
 21
-5.761684656632056
 31
0.0
  0
LINE
  5
742
330
1E
100
AcDbEntity
  8
ﾚｲﾔ1
  6
Continuous
100
AcDbLine
 10
596.3784741082922
 20
-5.761684656632056
 30
0.0
 11
595.7284741082922
 21
-5.711684656632052
 31
0.0
  0
LINE
  5
743
330
1E
100
AcDbEntity
  8
ﾚｲﾔ1
  6
Continuous
100
AcDbLine
 10
595.7284741082922
 20
-5.711684656632052
 30
0.0
 11
595.0784741082921
 21
-5.661684656632055
 31
0.0
  0
LINE
  5
744
330
1E
100
AcDbEntity
  8
ﾚｲﾔ1
  6
Continuous
100
AcDbLine
 10
595.0784741082921
 20
-5.661684656632055
 30
0.0
 11
594.3784741082922
 21
-5.661684656632055
 31
0.0
  0
LINE
  5
745
330
1E
100
AcDbEntity
  8
ﾚｲﾔ1
  6
Continuous
100
AcDbLine
 10
594.3784741082922
 20
-5.661684656632055
 30
0.0
 11
593.7284741082922
 21
-5.661684656632055
 31
0.0
  0
LINE
  5
746
330
1E
100
AcDbEntity
  8
ﾚｲﾔ1
  6
Continuous
100
AcDbLine
 10
593.7284741082922
 20
-5.661684656632055
 30
0.0
 11
593.0784741082921
 21
-5.661684656632055
 31
0.0
  0
LINE
  5
747
330
1E
100
AcDbEntity
  8
ﾚｲﾔ1
  6
Continuous
100
AcDbLine
 10
593.0784741082921
 20
-5.661684656632055
 30
0.0
 11
592.3784741082922
 21
-5.661684656632055
 31
0.0
  0
LINE
  5
748
330
1E
100
AcDbEntity
  8
ﾚｲﾔ1
  6
Continuous
100
AcDbLine
 10
592.3784741082922
 20
-5.661684656632055
 30
0.0
 11
591.7284741082922
 21
-5.711684656632052
 31
0.0
  0
LINE
  5
749
330
1E
100
AcDbEntity
  8
ﾚｲﾔ1
  6
Continuous
100
AcDbLine
 10
591.7284741082922
 20
-5.711684656632052
 30
0.0
 11
591.0784741082921
 21
-5.761684656632056
 31
0.0
  0
LINE
  5
74A
330
1E
100
AcDbEntity
  8
ﾚｲﾔ1
  6
Continuous
100
AcDbLine
 10
591.0784741082921
 20
-5.761684656632056
 30
0.0
 11
590.4284741082921
 21
-5.811684656632053
 31
0.0
  0
LINE
  5
74B
330
1E
100
AcDbEntity
  8
ﾚｲﾔ1
  6
Continuous
100
AcDbLine
 10
590.4284741082921
 20
-5.811684656632053
 30
0.0
 11
589.7784741082922
 21
-5.861684656632065
 31
0.0
  0
LINE
  5
74C
330
1E
100
AcDbEntity
  8
ﾚｲﾔ1
  6
Continuous
100
AcDbLine
 10
589.7784741082922
 20
-5.861684656632065
 30
0.0
 11
589.0784741082921
 21
-5.961684656632052
 31
0.0
  0
LINE
  5
74D
330
1E
100
AcDbEntity
  8
ﾚｲﾔ1
  6
Continuous
100
AcDbLine
 10
589.0784741082921
 20
-5.961684656632052
 30
0.0
 11
588.4284741082921
 21
-6.011684656632063
 31
0.0
  0
LINE
  5
74E
330
1E
100
AcDbEntity
  8
ﾚｲﾔ1
  6
Continuous
100
AcDbLine
 10
588.4284741082921
 20
-6.011684656632063
 30
0.0
 11
587.7784741082922
 21
-6.111684656632058
 31
0.0
  0
LINE
  5
74F
330
1E
100
AcDbEntity
  8
ﾚｲﾔ1
  6
Continuous
100
AcDbLine
 10
587.7784741082922
 20
-6.111684656632058
 30
0.0
 11
587.1284741082922
 21
-6.261684656632056
 31
0.0
  0
LINE
  5
750
330
1E
100
AcDbEntity
  8
ﾚｲﾔ1
  6
Continuous
100
AcDbLine
 10
587.1284741082922
 20
-6.261684656632056
 30
0.0
 11
586.4784741082922
 21
-6.361684656632065
 31
0.0
  0
LINE
  5
751
330
1E
100
AcDbEntity
  8
ﾚｲﾔ1
  6
Continuous
100
AcDbLine
 10
586.4784741082922
 20
-6.361684656632065
 30
0.0
 11
585.8284741082921
 21
-6.511684656632056
 31
0.0
  0
LINE
  5
752
330
1E
100
AcDbEntity
  8
ﾚｲﾔ1
  6
Continuous
100
AcDbLine
 10
585.8284741082921
 20
-6.511684656632056
 30
0.0
 11
585.1784741082921
 21
-6.611684656632058
 31
0.0
  0
LINE
  5
753
330
1E
100
AcDbEntity
  8
ﾚｲﾔ1
  6
Continuous
100
AcDbLine
 10
585.1784741082921
 20
-6.611684656632058
 30
0.0
 11
584.5284741082921
 21
-6.811684656632053
 31
0.0
  0
LINE
  5
754
330
1E
100
AcDbEntity
  8
ﾚｲﾔ1
  6
Continuous
100
AcDbLine
 10
584.5284741082921
 20
-6.811684656632053
 30
0.0
 11
583.8784741082922
 21
-6.961684656632052
 31
0.0
  0
LINE
  5
755
330
1E
100
AcDbEntity
  8
ﾚｲﾔ1
  6
Continuous
100
AcDbLine
 10
583.8784741082922
 20
-6.961684656632052
 30
0.0
 11
583.2784741082921
 21
-7.111684656632065
 31
0.0
  0
LINE
  5
756
330
1E
100
AcDbEntity
  8
ﾚｲﾔ1
  6
Continuous
100
AcDbLine
 10
583.2784741082921
 20
-7.111684656632065
 30
0.0
 11
582.6284741082922
 21
-7.311684656632053
 31
0.0
  0
LINE
  5
757
330
1E
100
AcDbEntity
  8
ﾚｲﾔ1
  6
Continuous
100
AcDbLine
 10
582.6284741082922
 20
-7.311684656632053
 30
0.0
 11
581.9784741082922
 21
-7.511684656632056
 31
0.0
  0
LINE
  5
758
330
1E
100
AcDbEntity
  8
ﾚｲﾔ1
  6
Continuous
100
AcDbLine
 10
581.9784741082922
 20
-7.511684656632056
 30
0.0
 11
581.3784741082922
 21
-7.711684656632052
 31
0.0
  0
LINE
  5
759
330
1E
100
AcDbEntity
  8
ﾚｲﾔ1
  6
Continuous
100
AcDbLine
 10
581.3784741082922
 20
-7.711684656632052
 30
0.0
 11
580.7284741082922
 21
-7.961684656632052
 31
0.0
  0
LINE
  5
75A
330
1E
100
AcDbEntity
  8
ﾚｲﾔ1
  6
Continuous
100
AcDbLine
 10
580.7284741082922
 20
-7.961684656632052
 30
0.0
 11
580.1284741082922
 21
-8.161684656632055
 31
0.0
  0
LINE
  5
75B
330
1E
100
AcDbEntity
  8
ﾚｲﾔ1
  6
Continuous
100
AcDbLine
 10
580.1284741082922
 20
-8.161684656632055
 30
0.0
 11
579.4784741082922
 21
-8.411684656632062
 31
0.0
  0
LINE
  5
75C
330
1E
100
AcDbEntity
  8
ﾚｲﾔ1
  6
Continuous
100
AcDbLine
 10
579.4784741082922
 20
-8.411684656632062
 30
0.0
 11
578.8784741082922
 21
-8.661684656632055
 31
0.0
  0
LINE
  5
75D
330
1E
100
AcDbEntity
  8
ﾚｲﾔ1
  6
Continuous
100
AcDbLine
 10
578.8784741082922
 20
-8.661684656632055
 30
0.0
 11
578.2784741082921
 21
-8.961684656632052
 31
0.0
  0
LINE
  5
75E
330
1E
100
AcDbEntity
  8
ﾚｲﾔ1
  6
Continuous
100
AcDbLine
 10
578.2784741082921
 20
-8.961684656632052
 30
0.0
 11
577.6784741082922
 21
-9.211684656632052
 31
0.0
  0
LINE
  5
75F
330
1E
100
AcDbEntity
  8
ﾚｲﾔ1
  6
Continuous
100
AcDbLine
 10
577.6784741082922
 20
-9.211684656632052
 30
0.0
 11
577.0784741082921
 21
-9.511684656632056
 31
0.0
  0
LINE
  5
760
330
1E
100
AcDbEntity
  8
ﾚｲﾔ1
  6
Continuous
100
AcDbLine
 10
577.0784741082921
 20
-9.511684656632056
 30
0.0
 11
576.4784741082922
 21
-9.811684656632053
 31
0.0
  0
LINE
  5
761
330
1E
100
AcDbEntity
  8
ﾚｲﾔ1
  6
Continuous
100
AcDbLine
 10
576.4784741082922
 20
-9.811684656632053
 30
0.0
 11
575.8784741082922
 21
-10.11168465663206
 31
0.0
  0
LINE
  5
762
330
1E
100
AcDbEntity
  8
ﾚｲﾔ1
  6
Continuous
100
AcDbLine
 10
575.8784741082922
 20
-10.11168465663206
 30
0.0
 11
575.3284741082921
 21
-10.41168465663205
 31
0.0
  0
LINE
  5
763
330
1E
100
AcDbEntity
  8
ﾚｲﾔ1
  6
Continuous
100
AcDbLine
 10
575.3284741082921
 20
-10.41168465663205
 30
0.0
 11
574.7284741082922
 21
-10.76168465663206
 31
0.0
  0
LINE
  5
764
330
1E
100
AcDbEntity
  8
ﾚｲﾔ1
  6
Continuous
100
AcDbLine
 10
574.7284741082922
 20
-10.76168465663206
 30
0.0
 11
574.1784741082921
 21
-11.11168465663206
 31
0.0
  0
LINE
  5
765
330
1E
100
AcDbEntity
  8
ﾚｲﾔ1
  6
Continuous
100
AcDbLine
 10
574.1784741082921
 20
-11.11168465663206
 30
0.0
 11
573.5784741082921
 21
-11.41168465663206
 31
0.0
  0
LINE
  5
766
330
1E
100
AcDbEntity
  8
ﾚｲﾔ1
  6
Continuous
100
AcDbLine
 10
573.5784741082921
 20
-11.41168465663206
 30
0.0
 11
573.0284741082921
 21
-11.81168465663207
 31
0.0
  0
LINE
  5
767
330
1E
100
AcDbEntity
  8
ﾚｲﾔ1
  6
Continuous
100
AcDbLine
 10
573.0284741082921
 20
-11.81168465663207
 30
0.0
 11
572.4784741082922
 21
-12.16168465663206
 31
0.0
  0
LINE
  5
768
330
1E
100
AcDbEntity
  8
ﾚｲﾔ1
  6
Continuous
100
AcDbLine
 10
572.4784741082922
 20
-12.16168465663206
 30
0.0
 11
571.9284741082921
 21
-12.51168465663206
 31
0.0
  0
LINE
  5
769
330
1E
100
AcDbEntity
  8
ﾚｲﾔ1
  6
Continuous
100
AcDbLine
 10
571.9284741082921
 20
-12.51168465663206
 30
0.0
 11
571.3784741082922
 21
-12.91168465663205
 31
0.0
  0
LINE
  5
76A
330
1E
100
AcDbEntity
  8
ﾚｲﾔ1
  6
Continuous
100
AcDbLine
 10
571.3784741082922
 20
-12.91168465663205
 30
0.0
 11
570.8784741082922
 21
-13.31168465663205
 31
0.0
  0
LINE
  5
76B
330
1E
100
AcDbEntity
  8
ﾚｲﾔ1
  6
Continuous
100
AcDbLine
 10
570.8784741082922
 20
-13.31168465663205
 30
0.0
 11
570.3284741082921
 21
-13.71168465663205
 31
0.0
  0
LINE
  5
76C
330
1E
100
AcDbEntity
  8
ﾚｲﾔ1
  6
Continuous
100
AcDbLine
 10
570.3284741082921
 20
-13.71168465663205
 30
0.0
 11
569.8284741082921
 21
-14.11168465663206
 31
0.0
  0
LINE
  5
76D
330
1E
100
AcDbEntity
  8
ﾚｲﾔ1
  6
Continuous
100
AcDbLine
 10
569.8284741082921
 20
-14.11168465663206
 30
0.0
 11
569.2784741082921
 21
-14.56168465663205
 31
0.0
  0
LINE
  5
76E
330
1E
100
AcDbEntity
  8
ﾚｲﾔ1
  6
Continuous
100
AcDbLine
 10
569.2784741082921
 20
-14.56168465663205
 30
0.0
 11
568.7784741082921
 21
-14.96168465663205
 31
0.0
  0
LINE
  5
76F
330
1E
100
AcDbEntity
  8
ﾚｲﾔ1
  6
Continuous
100
AcDbLine
 10
568.7784741082921
 20
-14.96168465663205
 30
0.0
 11
568.2784741082921
 21
-15.41168465663205
 31
0.0
  0
LINE
  5
770
330
1E
100
AcDbEntity
  8
ﾚｲﾔ1
  6
Continuous
100
AcDbLine
 10
568.2784741082921
 20
-15.41168465663205
 30
0.0
 11
567.8284741082921
 21
-15.86168465663206
 31
0.0
  0
LINE
  5
771
330
1E
100
AcDbEntity
  8
ﾚｲﾔ1
  6
Continuous
100
AcDbLine
 10
567.8284741082921
 20
-15.86168465663206
 30
0.0
 11
567.3284741082921
 21
-16.31168465663205
 31
0.0
  0
LINE
  5
772
330
1E
100
AcDbEntity
  8
ﾚｲﾔ1
  6
Continuous
100
AcDbLine
 10
567.3284741082921
 20
-16.31168465663205
 30
0.0
 11
566.8784741082922
 21
-16.81168465663205
 31
0.0
  0
LINE
  5
773
330
1E
100
AcDbEntity
  8
ﾚｲﾔ1
  6
Continuous
100
AcDbLine
 10
566.8784741082922
 20
-16.81168465663205
 30
0.0
 11
566.3784741082922
 21
-17.26168465663206
 31
0.0
  0
LINE
  5
774
330
1E
100
AcDbEntity
  8
ﾚｲﾔ1
  6
Continuous
100
AcDbLine
 10
566.3784741082922
 20
-17.26168465663206
 30
0.0
 11
565.9284741082921
 21
-17.76168465663206
 31
0.0
  0
LINE
  5
775
330
1E
100
AcDbEntity
  8
ﾚｲﾔ1
  6
Continuous
100
AcDbLine
 10
565.9284741082921
 20
-17.76168465663206
 30
0.0
 11
565.4784741082922
 21
-18.21168465663205
 31
0.0
  0
LINE
  5
776
330
1E
100
AcDbEntity
  8
ﾚｲﾔ1
  6
Continuous
100
AcDbLine
 10
565.4784741082922
 20
-18.21168465663205
 30
0.0
 11
565.0284741082921
 21
-18.71168465663205
 31
0.0
  0
LINE
  5
777
330
1E
100
AcDbEntity
  8
ﾚｲﾔ1
  6
Continuous
100
AcDbLine
 10
565.0284741082921
 20
-18.71168465663205
 30
0.0
 11
564.6284741082922
 21
-19.21168465663204
 31
0.0
  0
LINE
  5
778
330
1E
100
AcDbEntity
  8
ﾚｲﾔ1
  6
Continuous
100
AcDbLine
 10
564.6284741082922
 20
-19.21168465663204
 30
0.0
 11
564.1784741082921
 21
-19.76168465663206
 31
0.0
  0
LINE
  5
779
330
1E
100
AcDbEntity
  8
ﾚｲﾔ1
  6
Continuous
100
AcDbLine
 10
564.1784741082921
 20
-19.76168465663206
 30
0.0
 11
563.7784741082922
 21
-20.26168465663206
 31
0.0
  0
LINE
  5
77A
330
1E
100
AcDbEntity
  8
ﾚｲﾔ1
  6
Continuous
100
AcDbLine
 10
563.7784741082922
 20
-20.26168465663206
 30
0.0
 11
563.3784741082922
 21
-20.81168465663205
 31
0.0
  0
LINE
  5
77B
330
1E
100
AcDbEntity
  8
ﾚｲﾔ1
  6
Continuous
100
AcDbLine
 10
563.3784741082922
 20
-20.81168465663205
 30
0.0
 11
562.9784741082922
 21
-21.31168465663205
 31
0.0
  0
LINE
  5
77C
330
1E
100
AcDbEntity
  8
ﾚｲﾔ1
  6
Continuous
100
AcDbLine
 10
562.9784741082922
 20
-21.31168465663205
 30
0.0
 11
562.5784741082921
 21
-21.86168465663206
 31
0.0
  0
LINE
  5
77D
330
1E
100
AcDbEntity
  8
ﾚｲﾔ1
  6
Continuous
100
AcDbLine
 10
562.5784741082921
 20
-21.86168465663206
 30
0.0
 11
562.2284741082922
 21
-22.41168465663205
 31
0.0
  0
LINE
  5
77E
330
1E
100
AcDbEntity
  8
ﾚｲﾔ1
  6
Continuous
100
AcDbLine
 10
562.2284741082922
 20
-22.41168465663205
 30
0.0
 11
561.8784741082922
 21
-22.96168465663204
 31
0.0
  0
LINE
  5
77F
330
1E
100
AcDbEntity
  8
ﾚｲﾔ1
  6
Continuous
100
AcDbLine
 10
561.8784741082922
 20
-22.96168465663204
 30
0.0
 11
561.4784741082922
 21
-23.51168465663206
 31
0.0
  0
LINE
  5
780
330
1E
100
AcDbEntity
  8
ﾚｲﾔ1
  6
Continuous
100
AcDbLine
 10
561.4784741082922
 20
-23.51168465663206
 30
0.0
 11
561.1784741082921
 21
-24.11168465663206
 31
0.0
  0
LINE
  5
781
330
1E
100
AcDbEntity
  8
ﾚｲﾔ1
  6
Continuous
100
AcDbLine
 10
561.1784741082921
 20
-24.11168465663206
 30
0.0
 11
560.8284741082921
 21
-24.66168465663205
 31
0.0
  0
LINE
  5
782
330
1E
100
AcDbEntity
  8
ﾚｲﾔ1
  6
Continuous
100
AcDbLine
 10
560.8284741082921
 20
-24.66168465663205
 30
0.0
 11
560.4784741082922
 21
-25.26168465663205
 31
0.0
  0
LINE
  5
783
330
1E
100
AcDbEntity
  8
ﾚｲﾔ1
  6
Continuous
100
AcDbLine
 10
560.4784741082922
 20
-25.26168465663205
 30
0.0
 11
560.1784741082921
 21
-25.81168465663205
 31
0.0
  0
LINE
  5
784
330
1E
100
AcDbEntity
  8
ﾚｲﾔ1
  6
Continuous
100
AcDbLine
 10
560.1784741082921
 20
-25.81168465663205
 30
0.0
 11
559.8784741082922
 21
-26.41168465663205
 31
0.0
  0
LINE
  5
785
330
1E
100
AcDbEntity
  8
ﾚｲﾔ1
  6
Continuous
100
AcDbLine
 10
559.8784741082922
 20
-26.41168465663205
 30
0.0
 11
559.5784741082921
 21
-27.01168465663205
 31
0.0
  0
LINE
  5
786
330
1E
100
AcDbEntity
  8
ﾚｲﾔ1
  6
Continuous
100
AcDbLine
 10
559.5784741082921
 20
-27.01168465663205
 30
0.0
 11
559.2784741082921
 21
-27.61168465663205
 31
0.0
  0
LINE
  5
787
330
1E
100
AcDbEntity
  8
ﾚｲﾔ1
  6
Continuous
100
AcDbLine
 10
559.2784741082921
 20
-27.61168465663205
 30
0.0
 11
559.0284741082921
 21
-28.21168465663206
 31
0.0
  0
LINE
  5
788
330
1E
100
AcDbEntity
  8
ﾚｲﾔ1
  6
Continuous
100
AcDbLine
 10
559.0284741082921
 20
-28.21168465663206
 30
0.0
 11
558.7284741082922
 21
-28.81168465663205
 31
0.0
  0
LINE
  5
789
330
1E
100
AcDbEntity
  8
ﾚｲﾔ1
  6
Continuous
100
AcDbLine
 10
558.7284741082922
 20
-28.81168465663205
 30
0.0
 11
558.4784741082922
 21
-29.41168465663205
 31
0.0
  0
LINE
  5
78A
330
1E
100
AcDbEntity
  8
ﾚｲﾔ1
  6
Continuous
100
AcDbLine
 10
558.4784741082922
 20
-29.41168465663205
 30
0.0
 11
558.2284741082922
 21
-30.06168465663205
 31
0.0
  0
LINE
  5
78B
330
1E
100
AcDbEntity
  8
ﾚｲﾔ1
  6
Continuous
100
AcDbLine
 10
558.2284741082922
 20
-30.06168465663205
 30
0.0
 11
558.0284741082921
 21
-30.66168465663205
 31
0.0
  0
LINE
  5
78C
330
1E
100
AcDbEntity
  8
ﾚｲﾔ1
  6
Continuous
100
AcDbLine
 10
558.0284741082921
 20
-30.66168465663205
 30
0.0
 11
557.7784741082921
 21
-31.31168465663205
 31
0.0
  0
LINE
  5
78D
330
1E
100
AcDbEntity
  8
ﾚｲﾔ1
  6
Continuous
100
AcDbLine
 10
557.7784741082921
 20
-31.31168465663205
 30
0.0
 11
557.5784741082921
 21
-31.91168465663205
 31
0.0
  0
LINE
  5
78E
330
1E
100
AcDbEntity
  8
ﾚｲﾔ1
  6
Continuous
100
AcDbLine
 10
557.5784741082921
 20
-31.91168465663205
 30
0.0
 11
557.3784741082922
 21
-32.56168465663205
 31
0.0
  0
LINE
  5
78F
330
1E
100
AcDbEntity
  8
ﾚｲﾔ1
  6
Continuous
100
AcDbLine
 10
557.3784741082922
 20
-32.56168465663205
 30
0.0
 11
557.1784741082921
 21
-33.21168465663206
 31
0.0
  0
LINE
  5
790
330
1E
100
AcDbEntity
  8
ﾚｲﾔ1
  6
Continuous
100
AcDbLine
 10
557.1784741082921
 20
-33.21168465663206
 30
0.0
 11
557.0284741082921
 21
-33.81168465663205
 31
0.0
  0
LINE
  5
791
330
1E
100
AcDbEntity
  8
ﾚｲﾔ1
  6
Continuous
100
AcDbLine
 10
557.0284741082921
 20
-33.81168465663205
 30
0.0
 11
556.8784741082922
 21
-34.46168465663206
 31
0.0
  0
LINE
  5
792
330
1E
100
AcDbEntity
  8
ﾚｲﾔ1
  6
Continuous
100
AcDbLine
 10
556.8784741082922
 20
-34.46168465663206
 30
0.0
 11
556.6784741082922
 21
-35.11168465663205
 31
0.0
  0
LINE
  5
793
330
1E
100
AcDbEntity
  8
ﾚｲﾔ1
  6
Continuous
100
AcDbLine
 10
556.6784741082922
 20
-35.11168465663205
 30
0.0
 11
556.5784741082921
 21
-35.76168465663206
 31
0.0
  0
LINE
  5
794
330
1E
100
AcDbEntity
  8
ﾚｲﾔ1
  6
Continuous
100
AcDbLine
 10
556.5784741082921
 20
-35.76168465663206
 30
0.0
 11
556.4284741082921
 21
-36.41168465663205
 31
0.0
  0
LINE
  5
795
330
1E
100
AcDbEntity
  8
ﾚｲﾔ1
  6
Continuous
100
AcDbLine
 10
556.4284741082921
 20
-36.41168465663205
 30
0.0
 11
556.3284741082921
 21
-37.06168465663205
 31
0.0
  0
LINE
  5
796
330
1E
100
AcDbEntity
  8
ﾚｲﾔ1
  6
Continuous
100
AcDbLine
 10
556.3284741082921
 20
-37.06168465663205
 30
0.0
 11
556.1784741082921
 21
-37.71168465663206
 31
0.0
  0
LINE
  5
797
330
1E
100
AcDbEntity
  8
ﾚｲﾔ1
  6
Continuous
100
AcDbLine
 10
556.1784741082921
 20
-37.71168465663206
 30
0.0
 11
556.0784741082921
 21
-38.36168465663205
 31
0.0
  0
LINE
  5
798
330
1E
100
AcDbEntity
  8
ﾚｲﾔ1
  6
Continuous
100
AcDbLine
 10
556.0784741082921
 20
-38.36168465663205
 30
0.0
 11
556.0284741082921
 21
-39.01168465663206
 31
0.0
  0
LINE
  5
799
330
1E
100
AcDbEntity
  8
ﾚｲﾔ1
  6
Continuous
100
AcDbLine
 10
556.0284741082921
 20
-39.01168465663206
 30
0.0
 11
555.9284741082922
 21
-39.71168465663206
 31
0.0
  0
LINE
  5
79A
330
1E
100
AcDbEntity
  8
ﾚｲﾔ1
  6
Continuous
100
AcDbLine
 10
555.9284741082922
 20
-39.71168465663206
 30
0.0
 11
555.8784741082922
 21
-40.36168465663205
 31
0.0
  0
LINE
  5
79B
330
1E
100
AcDbEntity
  8
ﾚｲﾔ1
  6
Continuous
100
AcDbLine
 10
555.8784741082922
 20
-40.36168465663205
 30
0.0
 11
555.8284741082921
 21
-41.01168465663206
 31
0.0
  0
LINE
  5
79C
330
1E
100
AcDbEntity
  8
ﾚｲﾔ1
  6
Continuous
100
AcDbLine
 10
555.8284741082921
 20
-41.01168465663206
 30
0.0
 11
555.7784741082921
 21
-41.66168465663205
 31
0.0
  0
LINE
  5
79D
330
1E
100
AcDbEntity
  8
ﾚｲﾔ1
  6
Continuous
100
AcDbLine
 10
555.7784741082921
 20
-41.66168465663205
 30
0.0
 11
555.7284741082922
 21
-42.31168465663205
 31
0.0
  0
LINE
  5
79E
330
1E
100
AcDbEntity
  8
ﾚｲﾔ1
  6
Continuous
100
AcDbLine
 10
555.7284741082922
 20
-42.31168465663205
 30
0.0
 11
555.7284741082922
 21
-43.01168465663206
 31
0.0
  0
LINE
  5
79F
330
1E
100
AcDbEntity
  8
ﾚｲﾔ1
  6
Continuous
100
AcDbLine
 10
555.7284741082922
 20
-43.01168465663206
 30
0.0
 11
555.7284741082922
 21
-43.66168465663205
 31
0.0
  0
LINE
  5
7A0
330
1E
100
AcDbEntity
  8
ﾚｲﾔ1
  6
Continuous
100
AcDbLine
 10
555.7284741082922
 20
-43.66168465663205
 30
0.0
 11
555.7284741082922
 21
-44.31168465663205
 31
0.0
  0
LINE
  5
7A1
330
1E
100
AcDbEntity
  8
ﾚｲﾔ1
  6
Continuous
100
AcDbLine
 10
555.7284741082922
 20
-44.31168465663205
 30
0.0
 11
555.7284741082922
 21
-45.01168465663206
 31
0.0
  0
LINE
  5
7A2
330
1E
100
AcDbEntity
  8
ﾚｲﾔ1
  6
Continuous
100
AcDbLine
 10
555.7284741082922
 20
-45.01168465663206
 30
0.0
 11
555.7784741082921
 21
-45.66168465663205
 31
0.0
  0
LINE
  5
7A3
330
1E
100
AcDbEntity
  8
ﾚｲﾔ1
  6
Continuous
100
AcDbLine
 10
555.7784741082921
 20
-45.66168465663205
 30
0.0
 11
555.8284741082921
 21
-46.31168465663205
 31
0.0
  0
LINE
  5
7A4
330
1E
100
AcDbEntity
  8
ﾚｲﾔ1
  6
Continuous
100
AcDbLine
 10
555.8284741082921
 20
-46.31168465663205
 30
0.0
 11
555.8784741082922
 21
-46.96168465663206
 31
0.0
  0
LINE
  5
7A5
330
1E
100
AcDbEntity
  8
ﾚｲﾔ1
  6
Continuous
100
AcDbLine
 10
555.8784741082922
 20
-46.96168465663206
 30
0.0
 11
555.9284741082922
 21
-47.61168465663205
 31
0.0
  0
LINE
  5
7A6
330
1E
100
AcDbEntity
  8
ﾚｲﾔ1
  6
Continuous
100
AcDbLine
 10
555.9284741082922
 20
-47.61168465663205
 30
0.0
 11
556.0284741082921
 21
-48.31168465663205
 31
0.0
  0
LINE
  5
7A7
330
1E
100
AcDbEntity
  8
ﾚｲﾔ1
  6
Continuous
100
AcDbLine
 10
556.0284741082921
 20
-48.31168465663205
 30
0.0
 11
556.0784741082921
 21
-48.96168465663206
 31
0.0
  0
LINE
  5
7A8
330
1E
100
AcDbEntity
  8
ﾚｲﾔ1
  6
Continuous
100
AcDbLine
 10
556.0784741082921
 20
-48.96168465663206
 30
0.0
 11
556.1784741082921
 21
-49.61168465663205
 31
0.0
  0
LINE
  5
7A9
330
1E
100
AcDbEntity
  8
ﾚｲﾔ1
  6
Continuous
100
AcDbLine
 10
556.1784741082921
 20
-49.61168465663205
 30
0.0
 11
556.3284741082921
 21
-50.26168465663206
 31
0.0
  0
LINE
  5
7AA
330
1E
100
AcDbEntity
  8
ﾚｲﾔ1
  6
Continuous
100
AcDbLine
 10
556.3284741082921
 20
-50.26168465663206
 30
0.0
 11
556.4284741082921
 21
-50.91168465663205
 31
0.0
  0
LINE
  5
7AB
330
1E
100
AcDbEntity
  8
ﾚｲﾔ1
  6
Continuous
100
AcDbLine
 10
556.4284741082921
 20
-50.91168465663205
 30
0.0
 11
556.5784741082921
 21
-51.56168465663205
 31
0.0
  0
LINE
  5
7AC
330
1E
100
AcDbEntity
  8
ﾚｲﾔ1
  6
Continuous
100
AcDbLine
 10
556.5784741082921
 20
-51.56168465663205
 30
0.0
 11
556.6784741082922
 21
-52.21168465663205
 31
0.0
  0
LINE
  5
7AD
330
1E
100
AcDbEntity
  8
ﾚｲﾔ1
  6
Continuous
100
AcDbLine
 10
556.6784741082922
 20
-52.21168465663205
 30
0.0
 11
556.8784741082922
 21
-52.86168465663205
 31
0.0
  0
LINE
  5
7AE
330
1E
100
AcDbEntity
  8
ﾚｲﾔ1
  6
Continuous
100
AcDbLine
 10
556.8784741082922
 20
-52.86168465663205
 30
0.0
 11
557.0284741082921
 21
-53.51168465663206
 31
0.0
  0
LINE
  5
7AF
330
1E
100
AcDbEntity
  8
ﾚｲﾔ1
  6
Continuous
100
AcDbLine
 10
557.0284741082921
 20
-53.51168465663206
 30
0.0
 11
557.1784741082921
 21
-54.11168465663206
 31
0.0
  0
LINE
  5
7B0
330
1E
100
AcDbEntity
  8
ﾚｲﾔ1
  6
Continuous
100
AcDbLine
 10
557.1784741082921
 20
-54.11168465663206
 30
0.0
 11
557.3784741082922
 21
-54.76168465663206
 31
0.0
  0
LINE
  5
7B1
330
1E
100
AcDbEntity
  8
ﾚｲﾔ1
  6
Continuous
100
AcDbLine
 10
557.3784741082922
 20
-54.76168465663206
 30
0.0
 11
557.5784741082921
 21
-55.41168465663205
 31
0.0
  0
LINE
  5
7B2
330
1E
100
AcDbEntity
  8
ﾚｲﾔ1
  6
Continuous
100
AcDbLine
 10
557.5784741082921
 20
-55.41168465663205
 30
0.0
 11
557.7784741082921
 21
-56.01168465663206
 31
0.0
  0
LINE
  5
7B3
330
1E
100
AcDbEntity
  8
ﾚｲﾔ1
  6
Continuous
100
AcDbLine
 10
557.7784741082921
 20
-56.01168465663206
 30
0.0
 11
558.0284741082921
 21
-56.66168365663206
 31
0.0
  0
LINE
  5
7B4
330
1E
100
AcDbEntity
  8
ﾚｲﾔ1
  6
Continuous
100
AcDbLine
 10
558.0284741082921
 20
-56.66168365663206
 30
0.0
 11
558.2284741082922
 21
-57.26168365663205
 31
0.0
  0
LINE
  5
7B5
330
1E
100
AcDbEntity
  8
ﾚｲﾔ1
  6
Continuous
100
AcDbLine
 10
558.2284741082922
 20
-57.26168365663205
 30
0.0
 11
558.4784741082922
 21
-57.91168365663205
 31
0.0
  0
LINE
  5
7B6
330
1E
100
AcDbEntity
  8
ﾚｲﾔ1
  6
Continuous
100
AcDbLine
 10
558.4784741082922
 20
-57.91168365663205
 30
0.0
 11
558.7284741082922
 21
-58.51168365663205
 31
0.0
  0
LINE
  5
7B7
330
1E
100
AcDbEntity
  8
ﾚｲﾔ1
  6
Continuous
100
AcDbLine
 10
558.7284741082922
 20
-58.51168365663205
 30
0.0
 11
559.0284741082921
 21
-59.11168365663205
 31
0.0
  0
LINE
  5
7B8
330
1E
100
AcDbEntity
  8
ﾚｲﾔ1
  6
Continuous
100
AcDbLine
 10
559.0284741082921
 20
-59.11168365663205
 30
0.0
 11
559.2784741082921
 21
-59.71168365663205
 31
0.0
  0
LINE
  5
7B9
330
1E
100
AcDbEntity
  8
ﾚｲﾔ1
  6
Continuous
100
AcDbLine
 10
559.2784741082921
 20
-59.71168365663205
 30
0.0
 11
559.5784741082921
 21
-60.31168365663206
 31
0.0
  0
LINE
  5
7BA
330
1E
100
AcDbEntity
  8
ﾚｲﾔ1
  6
Continuous
100
AcDbLine
 10
559.5784741082921
 20
-60.31168365663206
 30
0.0
 11
559.8784741082922
 21
-60.91168365663206
 31
0.0
  0
LINE
  5
7BB
330
1E
100
AcDbEntity
  8
ﾚｲﾔ1
  6
Continuous
100
AcDbLine
 10
559.8784741082922
 20
-60.91168365663206
 30
0.0
 11
560.1784741082921
 21
-61.51168365663205
 31
0.0
  0
LINE
  5
7BC
330
1E
100
AcDbEntity
  8
ﾚｲﾔ1
  6
Continuous
100
AcDbLine
 10
560.1784741082921
 20
-61.51168365663205
 30
0.0
 11
560.4784741082922
 21
-62.06168365663206
 31
0.0
  0
LINE
  5
7BD
330
1E
100
AcDbEntity
  8
ﾚｲﾔ1
  6
Continuous
100
AcDbLine
 10
560.4784741082922
 20
-62.06168365663206
 30
0.0
 11
560.8284741082921
 21
-62.66168365663206
 31
0.0
  0
LINE
  5
7BE
330
1E
100
AcDbEntity
  8
ﾚｲﾔ1
  6
Continuous
100
AcDbLine
 10
560.8284741082921
 20
-62.66168365663206
 30
0.0
 11
561.1784741082921
 21
-63.21168365663205
 31
0.0
  0
LINE
  5
7BF
330
1E
100
AcDbEntity
  8
ﾚｲﾔ1
  6
Continuous
100
AcDbLine
 10
561.1784741082921
 20
-63.21168365663205
 30
0.0
 11
561.4784741082922
 21
-63.81168365663206
 31
0.0
  0
LINE
  5
7C0
330
1E
100
AcDbEntity
  8
ﾚｲﾔ1
  6
Continuous
100
AcDbLine
 10
561.4784741082922
 20
-63.81168365663206
 30
0.0
 11
561.8784741082922
 21
-64.36168365663205
 31
0.0
  0
LINE
  5
7C1
330
1E
100
AcDbEntity
  8
ﾚｲﾔ1
  6
Continuous
100
AcDbLine
 10
561.8784741082922
 20
-64.36168365663205
 30
0.0
 11
562.2284741082922
 21
-64.91168365663205
 31
0.0
  0
LINE
  5
7C2
330
1E
100
AcDbEntity
  8
ﾚｲﾔ1
  6
Continuous
100
AcDbLine
 10
562.2284741082922
 20
-64.91168365663205
 30
0.0
 11
562.5784741082921
 21
-65.46168365663206
 31
0.0
  0
LINE
  5
7C3
330
1E
100
AcDbEntity
  8
ﾚｲﾔ1
  6
Continuous
100
AcDbLine
 10
562.5784741082921
 20
-65.46168365663206
 30
0.0
 11
562.9784741082922
 21
-66.01168365663206
 31
0.0
  0
LINE
  5
7C4
330
1E
100
AcDbEntity
  8
ﾚｲﾔ1
  6
Continuous
100
AcDbLine
 10
562.9784741082922
 20
-66.01168365663206
 30
0.0
 11
563.3784741082922
 21
-66.51168365663206
 31
0.0
  0
LINE
  5
7C5
330
1E
100
AcDbEntity
  8
ﾚｲﾔ1
  6
Continuous
100
AcDbLine
 10
563.3784741082922
 20
-66.51168365663206
 30
0.0
 11
563.7784741082922
 21
-67.06168365663206
 31
0.0
  0
LINE
  5
7C6
330
1E
100
AcDbEntity
  8
ﾚｲﾔ1
  6
Continuous
100
AcDbLine
 10
563.7784741082922
 20
-67.06168365663206
 30
0.0
 11
564.1784741082921
 21
-67.56168365663206
 31
0.0
  0
LINE
  5
7C7
330
1E
100
AcDbEntity
  8
ﾚｲﾔ1
  6
Continuous
100
AcDbLine
 10
564.1784741082921
 20
-67.56168365663206
 30
0.0
 11
564.6284741082922
 21
-68.11168365663205
 31
0.0
  0
LINE
  5
7C8
330
1E
100
AcDbEntity
  8
ﾚｲﾔ1
  6
Continuous
100
AcDbLine
 10
564.6284741082922
 20
-68.11168365663205
 30
0.0
 11
565.0284741082921
 21
-68.61168365663205
 31
0.0
  0
LINE
  5
7C9
330
1E
100
AcDbEntity
  8
ﾚｲﾔ1
  6
Continuous
100
AcDbLine
 10
565.0284741082921
 20
-68.61168365663205
 30
0.0
 11
565.4784741082922
 21
-69.11168365663205
 31
0.0
  0
LINE
  5
7CA
330
1E
100
AcDbEntity
  8
ﾚｲﾔ1
  6
Continuous
100
AcDbLine
 10
565.4784741082922
 20
-69.11168365663205
 30
0.0
 11
565.9284741082921
 21
-69.56168365663206
 31
0.0
  0
LINE
  5
7CB
330
1E
100
AcDbEntity
  8
ﾚｲﾔ1
  6
Continuous
100
AcDbLine
 10
565.9284741082921
 20
-69.56168365663206
 30
0.0
 11
566.3784741082922
 21
-70.06168365663206
 31
0.0
  0
LINE
  5
7CC
330
1E
100
AcDbEntity
  8
ﾚｲﾔ1
  6
Continuous
100
AcDbLine
 10
566.3784741082922
 20
-70.06168365663206
 30
0.0
 11
566.8784741082922
 21
-70.51168365663206
 31
0.0
  0
LINE
  5
7CD
330
1E
100
AcDbEntity
  8
ﾚｲﾔ1
  6
Continuous
100
AcDbLine
 10
566.8784741082922
 20
-70.51168365663206
 30
0.0
 11
567.3284741082921
 21
-71.01168365663206
 31
0.0
  0
LINE
  5
7CE
330
1E
100
AcDbEntity
  8
ﾚｲﾔ1
  6
Continuous
100
AcDbLine
 10
567.3284741082921
 20
-71.01168365663206
 30
0.0
 11
567.8284741082921
 21
-71.46168365663206
 31
0.0
  0
LINE
  5
7CF
330
1E
100
AcDbEntity
  8
ﾚｲﾔ1
  6
Continuous
100
AcDbLine
 10
567.8284741082921
 20
-71.46168365663206
 30
0.0
 11
568.2784741082921
 21
-71.91168365663205
 31
0.0
  0
LINE
  5
7D0
330
1E
100
AcDbEntity
  8
ﾚｲﾔ1
  6
Continuous
100
AcDbLine
 10
568.2784741082921
 20
-71.91168365663205
 30
0.0
 11
568.7784741082921
 21
-72.36168365663205
 31
0.0
  0
LINE
  5
7D1
330
1E
100
AcDbEntity
  8
ﾚｲﾔ1
  6
Continuous
100
AcDbLine
 10
568.7784741082921
 20
-72.36168365663205
 30
0.0
 11
569.2784741082921
 21
-72.76168365663206
 31
0.0
  0
LINE
  5
7D2
330
1E
100
AcDbEntity
  8
ﾚｲﾔ1
  6
Continuous
100
AcDbLine
 10
569.2784741082921
 20
-72.76168365663206
 30
0.0
 11
569.8284741082921
 21
-73.21168365663206
 31
0.0
  0
LINE
  5
7D3
330
1E
100
AcDbEntity
  8
ﾚｲﾔ1
  6
Continuous
100
AcDbLine
 10
569.8284741082921
 20
-73.21168365663206
 30
0.0
 11
570.3284741082921
 21
-73.61168365663205
 31
0.0
  0
LINE
  5
7D4
330
1E
100
AcDbEntity
  8
ﾚｲﾔ1
  6
Continuous
100
AcDbLine
 10
570.3284741082921
 20
-73.61168365663205
 30
0.0
 11
570.8784741082922
 21
-74.01168365663206
 31
0.0
  0
LINE
  5
7D5
330
1E
100
AcDbEntity
  8
ﾚｲﾔ1
  6
Continuous
100
AcDbLine
 10
570.8784741082922
 20
-74.01168365663206
 30
0.0
 11
571.3784741082922
 21
-74.41168365663205
 31
0.0
  0
LINE
  5
7D6
330
1E
100
AcDbEntity
  8
ﾚｲﾔ1
  6
Continuous
100
AcDbLine
 10
571.3784741082922
 20
-74.41168365663205
 30
0.0
 11
571.9284741082921
 21
-74.81168365663206
 31
0.0
  0
LINE
  5
7D7
330
1E
100
AcDbEntity
  8
ﾚｲﾔ1
  6
Continuous
100
AcDbLine
 10
571.9284741082921
 20
-74.81168365663206
 30
0.0
 11
572.4784741082922
 21
-75.16168365663205
 31
0.0
  0
LINE
  5
7D8
330
1E
100
AcDbEntity
  8
ﾚｲﾔ1
  6
Continuous
100
AcDbLine
 10
572.4784741082922
 20
-75.16168365663205
 30
0.0
 11
573.0284741082921
 21
-75.51168365663206
 31
0.0
  0
LINE
  5
7D9
330
1E
100
AcDbEntity
  8
ﾚｲﾔ1
  6
Continuous
100
AcDbLine
 10
573.0284741082921
 20
-75.51168365663206
 30
0.0
 11
573.5784741082921
 21
-75.91168365663205
 31
0.0
  0
LINE
  5
7DA
330
1E
100
AcDbEntity
  8
ﾚｲﾔ1
  6
Continuous
100
AcDbLine
 10
573.5784741082921
 20
-75.91168365663205
 30
0.0
 11
574.1784741082921
 21
-76.21168365663206
 31
0.0
  0
LINE
  5
7DB
330
1E
100
AcDbEntity
  8
ﾚｲﾔ1
  6
Continuous
100
AcDbLine
 10
574.1784741082921
 20
-76.21168365663206
 30
0.0
 11
574.7284741082922
 21
-76.56168365663206
 31
0.0
  0
LINE
  5
7DC
330
1E
100
AcDbEntity
  8
ﾚｲﾔ1
  6
Continuous
100
AcDbLine
 10
574.7284741082922
 20
-76.56168365663206
 30
0.0
 11
575.3284741082921
 21
-76.91168365663205
 31
0.0
  0
LINE
  5
7DD
330
1E
100
AcDbEntity
  8
ﾚｲﾔ1
  6
Continuous
100
AcDbLine
 10
575.3284741082921
 20
-76.91168365663205
 30
0.0
 11
575.8784741082922
 21
-77.21168365663206
 31
0.0
  0
LINE
  5
7DE
330
1E
100
AcDbEntity
  8
ﾚｲﾔ1
  6
Continuous
100
AcDbLine
 10
575.8784741082922
 20
-77.21168365663206
 30
0.0
 11
576.4784741082922
 21
-77.51168365663206
 31
0.0
  0
LINE
  5
7DF
330
1E
100
AcDbEntity
  8
ﾚｲﾔ1
  6
Continuous
100
AcDbLine
 10
576.4784741082922
 20
-77.51168365663206
 30
0.0
 11
577.0784741082921
 21
-77.81168365663206
 31
0.0
  0
LINE
  5
7E0
330
1E
100
AcDbEntity
  8
ﾚｲﾔ1
  6
Continuous
100
AcDbLine
 10
577.0784741082921
 20
-77.81168365663206
 30
0.0
 11
577.6784741082922
 21
-78.11168365663205
 31
0.0
  0
LINE
  5
7E1
330
1E
100
AcDbEntity
  8
ﾚｲﾔ1
  6
Continuous
100
AcDbLine
 10
577.6784741082922
 20
-78.11168365663205
 30
0.0
 11
578.2784741082921
 21
-78.36168365663205
 31
0.0
  0
LINE
  5
7E2
330
1E
100
AcDbEntity
  8
ﾚｲﾔ1
  6
Continuous
100
AcDbLine
 10
578.2784741082921
 20
-78.36168365663205
 30
0.0
 11
578.8784741082922
 21
-78.66168365663205
 31
0.0
  0
LINE
  5
7E3
330
1E
100
AcDbEntity
  8
ﾚｲﾔ1
  6
Continuous
100
AcDbLine
 10
578.8784741082922
 20
-78.66168365663205
 30
0.0
 11
579.4784741082922
 21
-78.91168365663205
 31
0.0
  0
LINE
  5
7E4
330
1E
100
AcDbEntity
  8
ﾚｲﾔ1
  6
Continuous
100
AcDbLine
 10
579.4784741082922
 20
-78.91168365663205
 30
0.0
 11
580.1284741082922
 21
-79.16168365663205
 31
0.0
  0
LINE
  5
7E5
330
1E
100
AcDbEntity
  8
ﾚｲﾔ1
  6
Continuous
100
AcDbLine
 10
580.1284741082922
 20
-79.16168365663205
 30
0.0
 11
580.7284741082922
 21
-79.36168365663205
 31
0.0
  0
LINE
  5
7E6
330
1E
100
AcDbEntity
  8
ﾚｲﾔ1
  6
Continuous
100
AcDbLine
 10
580.7284741082922
 20
-79.36168365663205
 30
0.0
 11
581.3784741082922
 21
-79.61168365663205
 31
0.0
  0
LINE
  5
7E7
330
1E
100
AcDbEntity
  8
ﾚｲﾔ1
  6
Continuous
100
AcDbLine
 10
581.3784741082922
 20
-79.61168365663205
 30
0.0
 11
581.9784741082922
 21
-79.81168365663206
 31
0.0
  0
LINE
  5
7E8
330
1E
100
AcDbEntity
  8
ﾚｲﾔ1
  6
Continuous
100
AcDbLine
 10
581.9784741082922
 20
-79.81168365663206
 30
0.0
 11
582.6284741082922
 21
-80.01168365663206
 31
0.0
  0
LINE
  5
7E9
330
1E
100
AcDbEntity
  8
ﾚｲﾔ1
  6
Continuous
100
AcDbLine
 10
582.6284741082922
 20
-80.01168365663206
 30
0.0
 11
583.2784741082921
 21
-80.21168365663206
 31
0.0
  0
LINE
  5
7EA
330
1E
100
AcDbEntity
  8
ﾚｲﾔ1
  6
Continuous
100
AcDbLine
 10
583.2784741082921
 20
-80.21168365663206
 30
0.0
 11
583.8784741082922
 21
-80.36168365663205
 31
0.0
  0
LINE
  5
7EB
330
1E
100
AcDbEntity
  8
ﾚｲﾔ1
  6
Continuous
100
AcDbLine
 10
583.8784741082922
 20
-80.36168365663205
 30
0.0
 11
584.5284741082921
 21
-80.51168365663206
 31
0.0
  0
LINE
  5
7EC
330
1E
100
AcDbEntity
  8
ﾚｲﾔ1
  6
Continuous
100
AcDbLine
 10
584.5284741082921
 20
-80.51168365663206
 30
0.0
 11
585.1784741082921
 21
-80.71168365663206
 31
0.0
  0
LINE
  5
7ED
330
1E
100
AcDbEntity
  8
ﾚｲﾔ1
  6
Continuous
100
AcDbLine
 10
585.1784741082921
 20
-80.71168365663206
 30
0.0
 11
585.8284741082921
 21
-80.81168365663206
 31
0.0
  0
LINE
  5
7EE
330
1E
100
AcDbEntity
  8
ﾚｲﾔ1
  6
Continuous
100
AcDbLine
 10
585.8284741082921
 20
-80.81168365663206
 30
0.0
 11
586.4784741082922
 21
-80.96168365663206
 31
0.0
  0
LINE
  5
7EF
330
1E
100
AcDbEntity
  8
ﾚｲﾔ1
  6
Continuous
100
AcDbLine
 10
586.4784741082922
 20
-80.96168365663206
 30
0.0
 11
587.1284741082922
 21
-81.06168365663206
 31
0.0
  0
LINE
  5
7F0
330
1E
100
AcDbEntity
  8
ﾚｲﾔ1
  6
Continuous
100
AcDbLine
 10
587.1284741082922
 20
-81.06168365663206
 30
0.0
 11
587.7784741082922
 21
-81.21168365663206
 31
0.0
  0
LINE
  5
7F1
330
1E
100
AcDbEntity
  8
ﾚｲﾔ1
  6
Continuous
100
AcDbLine
 10
587.7784741082922
 20
-81.21168365663206
 30
0.0
 11
588.4284741082921
 21
-81.31168365663206
 31
0.0
  0
LINE
  5
7F2
330
1E
100
AcDbEntity
  8
ﾚｲﾔ1
  6
Continuous
100
AcDbLine
 10
588.4284741082921
 20
-81.31168365663206
 30
0.0
 11
589.0784741082921
 21
-81.36168365663205
 31
0.0
  0
LINE
  5
7F3
330
1E
100
AcDbEntity
  8
ﾚｲﾔ1
  6
Continuous
100
AcDbLine
 10
589.0784741082921
 20
-81.36168365663205
 30
0.0
 11
589.7784741082922
 21
-81.46168365663206
 31
0.0
  0
LINE
  5
7F4
330
1E
100
AcDbEntity
  8
ﾚｲﾔ1
  6
Continuous
100
AcDbLine
 10
589.7784741082922
 20
-81.46168365663206
 30
0.0
 11
590.4284741082921
 21
-81.51168365663206
 31
0.0
  0
LINE
  5
7F5
330
1E
100
AcDbEntity
  8
ﾚｲﾔ1
  6
Continuous
100
AcDbLine
 10
590.4284741082921
 20
-81.51168365663206
 30
0.0
 11
591.0784741082921
 21
-81.56168365663206
 31
0.0
  0
LINE
  5
7F6
330
1E
100
AcDbEntity
  8
ﾚｲﾔ1
  6
Continuous
100
AcDbLine
 10
591.0784741082921
 20
-81.56168365663206
 30
0.0
 11
591.7284741082922
 21
-81.61168365663205
 31
0.0
  0
LINE
  5
7F7
330
1E
100
AcDbEntity
  8
ﾚｲﾔ1
  6
Continuous
100
AcDbLine
 10
591.7284741082922
 20
-81.61168365663205
 30
0.0
 11
592.3784741082922
 21
-81.66168365663205
 31
0.0
  0
LINE
  5
7F8
330
1E
100
AcDbEntity
  8
ﾚｲﾔ1
  6
Continuous
100
AcDbLine
 10
592.3784741082922
 20
-81.66168365663205
 30
0.0
 11
593.0784741082921
 21
-81.66168365663205
 31
0.0
  0
LINE
  5
7F9
330
1E
100
AcDbEntity
  8
ﾚｲﾔ1
  6
Continuous
100
AcDbLine
 10
593.0784741082921
 20
-81.66168365663205
 30
0.0
 11
593.7284741082922
 21
-81.66168365663205
 31
0.0
  0
LINE
  5
7FA
330
1E
100
AcDbEntity
  8
ﾚｲﾔ1
  6
Continuous
100
AcDbLine
 10
593.7284741082922
 20
-81.66168365663205
 30
0.0
 11
594.3784741082922
 21
-81.66168365663205
 31
0.0
  0
LINE
  5
7FB
330
1E
100
AcDbEntity
  8
ﾚｲﾔ1
  6
Continuous
100
AcDbLine
 10
594.3784741082922
 20
-81.66168365663205
 30
0.0
 11
595.0784741082921
 21
-81.66168365663205
 31
0.0
  0
LINE
  5
7FC
330
1E
100
AcDbEntity
  8
ﾚｲﾔ1
  6
Continuous
100
AcDbLine
 10
595.0784741082921
 20
-81.66168365663205
 30
0.0
 11
595.7284741082922
 21
-81.61168365663205
 31
0.0
  0
LINE
  5
7FD
330
1E
100
AcDbEntity
  8
ﾚｲﾔ1
  6
Continuous
100
AcDbLine
 10
595.7284741082922
 20
-81.61168365663205
 30
0.0
 11
596.3784741082922
 21
-81.56168365663206
 31
0.0
  0
LINE
  5
7FE
330
1E
100
AcDbEntity
  8
ﾚｲﾔ1
  6
Continuous
100
AcDbLine
 10
596.3784741082922
 20
-81.56168365663206
 30
0.0
 11
597.0284741082921
 21
-81.51168365663206
 31
0.0
  0
LINE
  5
7FF
330
1E
100
AcDbEntity
  8
ﾚｲﾔ1
  6
Continuous
100
AcDbLine
 10
597.0284741082921
 20
-81.51168365663206
 30
0.0
 11
597.6784741082921
 21
-81.46168365663206
 31
0.0
  0
LINE
  5
800
330
1E
100
AcDbEntity
  8
ﾚｲﾔ1
  6
Continuous
100
AcDbLine
 10
597.6784741082921
 20
-81.46168365663206
 30
0.0
 11
598.3784741082922
 21
-81.36168365663205
 31
0.0
  0
LINE
  5
801
330
1E
100
AcDbEntity
  8
ﾚｲﾔ1
  6
Continuous
100
AcDbLine
 10
598.3784741082922
 20
-81.36168365663205
 30
0.0
 11
599.0284741082921
 21
-81.31168365663206
 31
0.0
  0
LINE
  5
802
330
1E
100
AcDbEntity
  8
ﾚｲﾔ1
  6
Continuous
100
AcDbLine
 10
599.0284741082921
 20
-81.31168365663206
 30
0.0
 11
599.6784741082921
 21
-81.21168365663206
 31
0.0
  0
LINE
  5
803
330
1E
100
AcDbEntity
  8
ﾚｲﾔ1
  6
Continuous
100
AcDbLine
 10
599.6784741082921
 20
-81.21168365663206
 30
0.0
 11
600.3284741082921
 21
-81.06168365663206
 31
0.0
  0
LINE
  5
804
330
1E
100
AcDbEntity
  8
ﾚｲﾔ1
  6
Continuous
100
AcDbLine
 10
600.3284741082921
 20
-81.06168365663206
 30
0.0
 11
600.9784741082922
 21
-80.96168365663206
 31
0.0
  0
LINE
  5
805
330
1E
100
AcDbEntity
  8
ﾚｲﾔ1
  6
Continuous
100
AcDbLine
 10
600.9784741082922
 20
-80.96168365663206
 30
0.0
 11
601.6284741082922
 21
-80.81168365663206
 31
0.0
  0
LINE
  5
806
330
1E
100
AcDbEntity
  8
ﾚｲﾔ1
  6
Continuous
100
AcDbLine
 10
601.6284741082922
 20
-80.81168365663206
 30
0.0
 11
602.2784741082922
 21
-80.71168365663206
 31
0.0
  0
LINE
  5
807
330
1E
100
AcDbEntity
  8
ﾚｲﾔ1
  6
Continuous
100
AcDbLine
 10
602.2784741082922
 20
-80.71168365663206
 30
0.0
 11
602.9284741082921
 21
-80.51168365663206
 31
0.0
  0
LINE
  5
808
330
1E
100
AcDbEntity
  8
ﾚｲﾔ1
  6
Continuous
100
AcDbLine
 10
602.9284741082921
 20
-80.51168365663206
 30
0.0
 11
603.5784741082921
 21
-80.36168365663205
 31
0.0
  0
LINE
  5
809
330
1E
100
AcDbEntity
  8
ﾚｲﾔ1
  6
Continuous
100
AcDbLine
 10
603.5784741082921
 20
-80.36168365663205
 30
0.0
 11
604.1784741082921
 21
-80.21168365663206
 31
0.0
  0
LINE
  5
80A
330
1E
100
AcDbEntity
  8
ﾚｲﾔ1
  6
Continuous
100
AcDbLine
 10
604.1784741082921
 20
-80.21168365663206
 30
0.0
 11
604.8284741082921
 21
-80.01168365663206
 31
0.0
  0
LINE
  5
80B
330
1E
100
AcDbEntity
  8
ﾚｲﾔ1
  6
Continuous
100
AcDbLine
 10
604.8284741082921
 20
-80.01168365663206
 30
0.0
 11
605.4784741082922
 21
-79.81168365663206
 31
0.0
  0
LINE
  5
80C
330
1E
100
AcDbEntity
  8
ﾚｲﾔ1
  6
Continuous
100
AcDbLine
 10
605.4784741082922
 20
-79.81168365663206
 30
0.0
 11
606.0784741082921
 21
-79.61168365663205
 31
0.0
  0
LINE
  5
80D
330
1E
100
AcDbEntity
  8
ﾚｲﾔ1
  6
Continuous
100
AcDbLine
 10
606.0784741082921
 20
-79.61168365663205
 30
0.0
 11
606.7284741082922
 21
-79.36168365663205
 31
0.0
  0
LINE
  5
80E
330
1E
100
AcDbEntity
  8
ﾚｲﾔ1
  6
Continuous
100
AcDbLine
 10
606.7284741082922
 20
-79.36168365663205
 30
0.0
 11
607.3284741082921
 21
-79.16168365663205
 31
0.0
  0
LINE
  5
80F
330
1E
100
AcDbEntity
  8
ﾚｲﾔ1
  6
Continuous
100
AcDbLine
 10
607.3284741082921
 20
-79.16168365663205
 30
0.0
 11
607.9784741082922
 21
-78.91168365663205
 31
0.0
  0
LINE
  5
810
330
1E
100
AcDbEntity
  8
ﾚｲﾔ1
  6
Continuous
100
AcDbLine
 10
607.9784741082922
 20
-78.91168365663205
 30
0.0
 11
608.5784741082921
 21
-78.66168365663205
 31
0.0
  0
LINE
  5
811
330
1E
100
AcDbEntity
  8
ﾚｲﾔ1
  6
Continuous
100
AcDbLine
 10
608.5784741082921
 20
-78.66168365663205
 30
0.0
 11
609.1784741082921
 21
-78.36168365663205
 31
0.0
  0
LINE
  5
812
330
1E
100
AcDbEntity
  8
ﾚｲﾔ1
  6
Continuous
100
AcDbLine
 10
609.1784741082921
 20
-78.36168365663205
 30
0.0
 11
609.7784741082921
 21
-78.11168365663205
 31
0.0
  0
LINE
  5
813
330
1E
100
AcDbEntity
  8
ﾚｲﾔ1
  6
Continuous
100
AcDbLine
 10
609.7784741082921
 20
-78.11168365663205
 30
0.0
 11
610.3784741082922
 21
-77.81168365663206
 31
0.0
  0
LINE
  5
814
330
1E
100
AcDbEntity
  8
ﾚｲﾔ1
  6
Continuous
100
AcDbLine
 10
610.3784741082922
 20
-77.81168365663206
 30
0.0
 11
610.9784741082922
 21
-77.51168365663206
 31
0.0
  0
LINE
  5
815
330
1E
100
AcDbEntity
  8
ﾚｲﾔ1
  6
Continuous
100
AcDbLine
 10
610.9784741082922
 20
-77.51168365663206
 30
0.0
 11
611.5784741082921
 21
-77.21168365663206
 31
0.0
  0
LINE
  5
816
330
1E
100
AcDbEntity
  8
ﾚｲﾔ1
  6
Continuous
100
AcDbLine
 10
611.5784741082921
 20
-77.21168365663206
 30
0.0
 11
612.1284741082922
 21
-76.91168365663205
 31
0.0
  0
LINE
  5
817
330
1E
100
AcDbEntity
  8
ﾚｲﾔ1
  6
Continuous
100
AcDbLine
 10
612.1284741082922
 20
-76.91168365663205
 30
0.0
 11
612.7284741082922
 21
-76.56168365663206
 31
0.0
  0
LINE
  5
818
330
1E
100
AcDbEntity
  8
ﾚｲﾔ1
  6
Continuous
100
AcDbLine
 10
612.7284741082922
 20
-76.56168365663206
 30
0.0
 11
613.2784741082921
 21
-76.21168365663206
 31
0.0
  0
LINE
  5
819
330
1E
100
AcDbEntity
  8
ﾚｲﾔ1
  6
Continuous
100
AcDbLine
 10
613.2784741082921
 20
-76.21168365663206
 30
0.0
 11
613.8784741082922
 21
-75.91168365663205
 31
0.0
  0
LINE
  5
81A
330
1E
100
AcDbEntity
  8
ﾚｲﾔ1
  6
Continuous
100
AcDbLine
 10
613.8784741082922
 20
-75.91168365663205
 30
0.0
 11
614.4284741082921
 21
-75.51168365663206
 31
0.0
  0
LINE
  5
81B
330
1E
100
AcDbEntity
  8
ﾚｲﾔ1
  6
Continuous
100
AcDbLine
 10
614.4284741082921
 20
-75.51168365663206
 30
0.0
 11
614.9784741082922
 21
-75.16168365663205
 31
0.0
  0
LINE
  5
81C
330
1E
100
AcDbEntity
  8
ﾚｲﾔ1
  6
Continuous
100
AcDbLine
 10
614.9784741082922
 20
-75.16168365663205
 30
0.0
 11
615.5284741082921
 21
-74.81168365663206
 31
0.0
  0
LINE
  5
81D
330
1E
100
AcDbEntity
  8
ﾚｲﾔ1
  6
Continuous
100
AcDbLine
 10
615.5284741082921
 20
-74.81168365663206
 30
0.0
 11
616.0784741082921
 21
-74.41168365663205
 31
0.0
  0
LINE
  5
81E
330
1E
100
AcDbEntity
  8
ﾚｲﾔ1
  6
Continuous
100
AcDbLine
 10
616.0784741082921
 20
-74.41168365663205
 30
0.0
 11
616.5784741082921
 21
-74.01168365663206
 31
0.0
  0
LINE
  5
81F
330
1E
100
AcDbEntity
  8
ﾚｲﾔ1
  6
Continuous
100
AcDbLine
 10
616.5784741082921
 20
-74.01168365663206
 30
0.0
 11
617.1284741082922
 21
-73.61168365663205
 31
0.0
  0
LINE
  5
820
330
1E
100
AcDbEntity
  8
ﾚｲﾔ1
  6
Continuous
100
AcDbLine
 10
617.1284741082922
 20
-73.61168365663205
 30
0.0
 11
617.6284741082922
 21
-73.21168365663206
 31
0.0
  0
LINE
  5
821
330
1E
100
AcDbEntity
  8
ﾚｲﾔ1
  6
Continuous
100
AcDbLine
 10
617.6284741082922
 20
-73.21168365663206
 30
0.0
 11
618.1784741082921
 21
-72.76168365663206
 31
0.0
  0
LINE
  5
822
330
1E
100
AcDbEntity
  8
ﾚｲﾔ1
  6
Continuous
100
AcDbLine
 10
618.1784741082921
 20
-72.76168365663206
 30
0.0
 11
618.6784741082921
 21
-72.36168365663205
 31
0.0
  0
LINE
  5
823
330
1E
100
AcDbEntity
  8
ﾚｲﾔ1
  6
Continuous
100
AcDbLine
 10
618.6784741082921
 20
-72.36168365663205
 30
0.0
 11
619.1784741082921
 21
-71.91168365663205
 31
0.0
  0
LINE
  5
824
330
1E
100
AcDbEntity
  8
ﾚｲﾔ1
  6
Continuous
100
AcDbLine
 10
619.1784741082921
 20
-71.91168365663205
 30
0.0
 11
619.6284741082922
 21
-71.46168365663206
 31
0.0
  0
LINE
  5
825
330
1E
100
AcDbEntity
  8
ﾚｲﾔ1
  6
Continuous
100
AcDbLine
 10
619.6284741082922
 20
-71.46168365663206
 30
0.0
 11
620.1284741082922
 21
-71.01168365663206
 31
0.0
  0
LINE
  5
826
330
1E
100
AcDbEntity
  8
ﾚｲﾔ1
  6
Continuous
100
AcDbLine
 10
620.1284741082922
 20
-71.01168365663206
 30
0.0
 11
620.5784741082921
 21
-70.51168365663206
 31
0.0
  0
LINE
  5
827
330
1E
100
AcDbEntity
  8
ﾚｲﾔ1
  6
Continuous
100
AcDbLine
 10
620.5784741082921
 20
-70.51168365663206
 30
0.0
 11
621.0784741082921
 21
-70.06168365663206
 31
0.0
  0
LINE
  5
828
330
1E
100
AcDbEntity
  8
ﾚｲﾔ1
  6
Continuous
100
AcDbLine
 10
621.0784741082921
 20
-70.06168365663206
 30
0.0
 11
621.5284741082921
 21
-69.56168365663206
 31
0.0
  0
LINE
  5
829
330
1E
100
AcDbEntity
  8
ﾚｲﾔ1
  6
Continuous
100
AcDbLine
 10
621.5284741082921
 20
-69.56168365663206
 30
0.0
 11
621.9784741082922
 21
-69.11168365663205
 31
0.0
  0
LINE
  5
82A
330
1E
100
AcDbEntity
  8
ﾚｲﾔ1
  6
Continuous
100
AcDbLine
 10
621.9784741082922
 20
-69.11168365663205
 30
0.0
 11
622.4284741082921
 21
-68.61168365663205
 31
0.0
  0
LINE
  5
82B
330
1E
100
AcDbEntity
  8
ﾚｲﾔ1
  6
Continuous
100
AcDbLine
 10
622.4284741082921
 20
-68.61168365663205
 30
0.0
 11
622.8284741082921
 21
-68.11168365663205
 31
0.0
  0
LINE
  5
82C
330
1E
100
AcDbEntity
  8
ﾚｲﾔ1
  6
Continuous
100
AcDbLine
 10
622.8284741082921
 20
-68.11168365663205
 30
0.0
 11
623.2784741082921
 21
-67.56168365663206
 31
0.0
  0
LINE
  5
82D
330
1E
100
AcDbEntity
  8
ﾚｲﾔ1
  6
Continuous
100
AcDbLine
 10
623.2784741082921
 20
-67.56168365663206
 30
0.0
 11
623.6784741082921
 21
-67.06168365663206
 31
0.0
  0
LINE
  5
82E
330
1E
100
AcDbEntity
  8
ﾚｲﾔ1
  6
Continuous
100
AcDbLine
 10
623.6784741082921
 20
-67.06168365663206
 30
0.0
 11
624.0784741082921
 21
-66.51168365663206
 31
0.0
  0
LINE
  5
82F
330
1E
100
AcDbEntity
  8
ﾚｲﾔ1
  6
Continuous
100
AcDbLine
 10
624.0784741082921
 20
-66.51168365663206
 30
0.0
 11
624.4784741082922
 21
-66.01168365663206
 31
0.0
  0
LINE
  5
830
330
1E
100
AcDbEntity
  8
ﾚｲﾔ1
  6
Continuous
100
AcDbLine
 10
624.4784741082922
 20
-66.01168365663206
 30
0.0
 11
624.8784741082922
 21
-65.46168365663206
 31
0.0
  0
LINE
  5
831
330
1E
100
AcDbEntity
  8
ﾚｲﾔ1
  6
Continuous
100
AcDbLine
 10
624.8784741082922
 20
-65.46168365663206
 30
0.0
 11
625.2284741082922
 21
-64.91168365663205
 31
0.0
  0
LINE
  5
832
330
1E
100
AcDbEntity
  8
ﾚｲﾔ1
  6
Continuous
100
AcDbLine
 10
625.2284741082922
 20
-64.91168365663205
 30
0.0
 11
625.5784741082922
 21
-64.36168365663205
 31
0.0
  0
LINE
  5
833
330
1E
100
AcDbEntity
  8
ﾚｲﾔ1
  6
Continuous
100
AcDbLine
 10
625.5784741082922
 20
-64.36168365663205
 30
0.0
 11
625.9784741082922
 21
-63.81168365663206
 31
0.0
  0
LINE
  5
834
330
1E
100
AcDbEntity
  8
ﾚｲﾔ1
  6
Continuous
100
AcDbLine
 10
625.9784741082922
 20
-63.81168365663206
 30
0.0
 11
626.2784741082921
 21
-63.21168365663205
 31
0.0
  0
LINE
  5
835
330
1E
100
AcDbEntity
  8
ﾚｲﾔ1
  6
Continuous
100
AcDbLine
 10
626.2784741082921
 20
-63.21168365663205
 30
0.0
 11
626.6284741082922
 21
-62.66168365663206
 31
0.0
  0
LINE
  5
836
330
1E
100
AcDbEntity
  8
ﾚｲﾔ1
  6
Continuous
100
AcDbLine
 10
626.6284741082922
 20
-62.66168365663206
 30
0.0
 11
626.9784741082922
 21
-62.06168365663206
 31
0.0
  0
LINE
  5
837
330
1E
100
AcDbEntity
  8
ﾚｲﾔ1
  6
Continuous
100
AcDbLine
 10
626.9784741082922
 20
-62.06168365663206
 30
0.0
 11
627.2784741082921
 21
-61.51168365663205
 31
0.0
  0
LINE
  5
838
330
1E
100
AcDbEntity
  8
ﾚｲﾔ1
  6
Continuous
100
AcDbLine
 10
627.2784741082921
 20
-61.51168365663205
 30
0.0
 11
627.5784741082921
 21
-60.91168365663206
 31
0.0
  0
LINE
  5
839
330
1E
100
AcDbEntity
  8
ﾚｲﾔ1
  6
Continuous
100
AcDbLine
 10
627.5784741082921
 20
-60.91168365663206
 30
0.0
 11
627.8784741082922
 21
-60.31168365663206
 31
0.0
  0
LINE
  5
83A
330
1E
100
AcDbEntity
  8
ﾚｲﾔ1
  6
Continuous
100
AcDbLine
 10
627.8784741082922
 20
-60.31168365663206
 30
0.0
 11
628.1784741082921
 21
-59.71168365663205
 31
0.0
  0
LINE
  5
83B
330
1E
100
AcDbEntity
  8
ﾚｲﾔ1
  6
Continuous
100
AcDbLine
 10
628.1784741082921
 20
-59.71168365663205
 30
0.0
 11
628.4284741082921
 21
-59.11168365663205
 31
0.0
  0
LINE
  5
83C
330
1E
100
AcDbEntity
  8
ﾚｲﾔ1
  6
Continuous
100
AcDbLine
 10
628.4284741082921
 20
-59.11168365663205
 30
0.0
 11
628.7284741082922
 21
-58.51168365663205
 31
0.0
  0
LINE
  5
83D
330
1E
100
AcDbEntity
  8
ﾚｲﾔ1
  6
Continuous
100
AcDbLine
 10
628.7284741082922
 20
-58.51168365663205
 30
0.0
 11
628.9784741082922
 21
-57.91168365663205
 31
0.0
  0
LINE
  5
83E
330
1E
100
AcDbEntity
  8
ﾚｲﾔ1
  6
Continuous
100
AcDbLine
 10
628.9784741082922
 20
-57.91168365663205
 30
0.0
 11
629.2284741082922
 21
-57.26168365663205
 31
0.0
  0
LINE
  5
83F
330
1E
100
AcDbEntity
  8
ﾚｲﾔ1
  6
Continuous
100
AcDbLine
 10
629.2284741082922
 20
-57.26168365663205
 30
0.0
 11
629.4284741082921
 21
-56.66168365663206
 31
0.0
  0
LINE
  5
840
330
1E
100
AcDbEntity
  8
ﾚｲﾔ1
  6
Continuous
100
AcDbLine
 10
629.4284741082921
 20
-56.66168365663206
 30
0.0
 11
629.6784741082921
 21
-56.01168465663206
 31
0.0
  0
LINE
  5
841
330
1E
100
AcDbEntity
  8
ﾚｲﾔ1
  6
Continuous
100
AcDbLine
 10
629.6784741082921
 20
-56.01168465663206
 30
0.0
 11
629.8784741082922
 21
-55.41168465663205
 31
0.0
  0
LINE
  5
842
330
1E
100
AcDbEntity
  8
ﾚｲﾔ1
  6
Continuous
100
AcDbLine
 10
629.8784741082922
 20
-55.41168465663205
 30
0.0
 11
630.0784741082921
 21
-54.76168465663206
 31
0.0
  0
LINE
  5
843
330
1E
100
AcDbEntity
  8
ﾚｲﾔ1
  6
Continuous
100
AcDbLine
 10
630.0784741082921
 20
-54.76168465663206
 30
0.0
 11
630.2784741082921
 21
-54.11168465663206
 31
0.0
  0
LINE
  5
844
330
1E
100
AcDbEntity
  8
ﾚｲﾔ1
  6
Continuous
100
AcDbLine
 10
630.2784741082921
 20
-54.11168465663206
 30
0.0
 11
630.4284741082921
 21
-53.51168465663206
 31
0.0
  0
LINE
  5
845
330
1E
100
AcDbEntity
  8
ﾚｲﾔ1
  6
Continuous
100
AcDbLine
 10
630.4284741082921
 20
-53.51168465663206
 30
0.0
 11
630.5784741082922
 21
-52.86168465663205
 31
0.0
  0
LINE
  5
846
330
1E
100
AcDbEntity
  8
ﾚｲﾔ1
  6
Continuous
100
AcDbLine
 10
630.5784741082922
 20
-52.86168465663205
 30
0.0
 11
630.7784741082921
 21
-52.21168465663205
 31
0.0
  0
LINE
  5
847
330
1E
100
AcDbEntity
  8
ﾚｲﾔ1
  6
Continuous
100
AcDbLine
 10
630.7784741082921
 20
-52.21168465663205
 30
0.0
 11
630.8784741082922
 21
-51.56168465663205
 31
0.0
  0
LINE
  5
848
330
1E
100
AcDbEntity
  8
ﾚｲﾔ1
  6
Continuous
100
AcDbLine
 10
630.8784741082922
 20
-51.56168465663205
 30
0.0
 11
631.0284741082921
 21
-50.91168465663205
 31
0.0
  0
LINE
  5
849
330
1E
100
AcDbEntity
  8
ﾚｲﾔ1
  6
Continuous
100
AcDbLine
 10
631.0284741082921
 20
-50.91168465663205
 30
0.0
 11
631.1284741082922
 21
-50.26168465663206
 31
0.0
  0
LINE
  5
84A
330
1E
100
AcDbEntity
  8
ﾚｲﾔ1
  6
Continuous
100
AcDbLine
 10
631.1284741082922
 20
-50.26168465663206
 30
0.0
 11
631.2784741082921
 21
-49.61168465663205
 31
0.0
  0
LINE
  5
84B
330
1E
100
AcDbEntity
  8
ﾚｲﾔ1
  6
Continuous
100
AcDbLine
 10
631.2784741082921
 20
-49.61168465663205
 30
0.0
 11
631.3784741082922
 21
-48.96168465663206
 31
0.0
  0
LINE
  5
84C
330
1E
100
AcDbEntity
  8
ﾚｲﾔ1
  6
Continuous
100
AcDbLine
 10
631.3784741082922
 20
-48.96168465663206
 30
0.0
 11
631.4284741082921
 21
-48.31168465663205
 31
0.0
  0
LINE
  5
84D
330
1E
100
AcDbEntity
  8
ﾚｲﾔ1
  6
Continuous
100
AcDbLine
 10
631.4284741082921
 20
-48.31168465663205
 30
0.0
 11
631.5284741082921
 21
-47.61168465663205
 31
0.0
  0
LINE
  5
84E
330
1E
100
AcDbEntity
  8
ﾚｲﾔ1
  6
Continuous
100
AcDbLine
 10
631.5284741082921
 20
-47.61168465663205
 30
0.0
 11
631.5784741082921
 21
-46.96168465663206
 31
0.0
  0
LINE
  5
84F
330
1E
100
AcDbEntity
  8
ﾚｲﾔ1
  6
Continuous
100
AcDbLine
 10
631.5784741082921
 20
-46.96168465663206
 30
0.0
 11
631.6284741082922
 21
-46.31168465663205
 31
0.0
  0
LINE
  5
850
330
1E
100
AcDbEntity
  8
ﾚｲﾔ1
  6
Continuous
100
AcDbLine
 10
631.6284741082922
 20
-46.31168465663205
 30
0.0
 11
631.6784741082921
 21
-45.66168465663205
 31
0.0
  0
LINE
  5
851
330
1E
100
AcDbEntity
  8
ﾚｲﾔ1
  6
Continuous
100
AcDbLine
 10
631.6784741082921
 20
-45.66168465663205
 30
0.0
 11
631.7284741082922
 21
-45.01168465663206
 31
0.0
  0
LINE
  5
852
330
1E
100
AcDbEntity
  8
ﾚｲﾔ1
  6
Continuous
100
AcDbLine
 10
631.7284741082922
 20
-45.01168465663206
 30
0.0
 11
631.7284741082922
 21
-44.31168465663205
 31
0.0
  0
LINE
  5
853
330
1E
100
AcDbEntity
  8
ﾚｲﾔ1
  6
Continuous
100
AcDbLine
 10
631.7284741082922
 20
-44.31168465663205
 30
0.0
 11
631.7284741082922
 21
-43.66168465663205
 31
0.0
  0
LWPOLYLINE
  5
96D
330
1E
100
AcDbEntity
  8
ﾚｲﾔ1
100
AcDbPolyline
 90
        4
 70
     1
 43
0.0
 10
490.7027776465295
 20
158.0111471657539
 10
936.2091366552816
 20
158.0111471657539
 10
936.2091366552816
 20
-156.9888778231442
 10
490.7027776465295
 20
-156.9888778231442
  0
LINE
  5
96E
330
1E
100
AcDbEntity
  8
図面枠
  6
Continuous
100
AcDbLine
 10
912.3636973855794
 20
144.921232711956
 30
0.0
 11
510.8243597505682
 21
144.921232711956
 31
0.0
  0
LINE
  5
96F
330
1E
100
AcDbEntity
  8
図面枠
  6
Continuous
100
AcDbLine
 10
513.9532377061735
 20
141.7923547563507
 30
0.0
 11
909.2348194299159
 21
141.7923547563507
 31
0.0
  0
LINE
  5
970
330
1E
100
AcDbEntity
  8
図面枠
  6
Continuous
100
AcDbLine
 10
510.8243597505682
 20
144.921232711956
 30
0.0
 11
510.8243597505682
 21
-138.7637019288712
 31
0.0
  0
LINE
  5
971
330
1E
100
AcDbEntity
  8
図面枠
  6
Continuous
100
AcDbLine
 10
513.9532377061735
 20
-135.6348239732659
 30
0.0
 11
513.9532377061735
 21
141.7923547563507
 31
0.0
  0
LINE
  5
972
330
1E
100
AcDbEntity
  8
図面枠
  6
Continuous
100
AcDbLine
 10
909.2348194299159
 20
-135.6348239732659
 30
0.0
 11
513.9532377061735
 21
-135.6348239732659
 31
0.0
  0
LINE
  5
973
330
1E
100
AcDbEntity
  8
図面枠
  6
Continuous
100
AcDbLine
 10
912.3636973855794
 20
-138.7637019288712
 30
0.0
 11
510.8243597505682
 21
-138.7637019288712
 31
0.0
  0
LINE
  5
974
330
1E
100
AcDbEntity
  8
図面枠
  6
Continuous
100
AcDbLine
 10
909.2348194299159
 20
-125.2052307879538
 30
0.0
 11
865.4305280515584
 21
-125.2052307879538
 31
0.0
  0
LINE
  5
975
330
1E
100
AcDbEntity
  8
図面枠
  6
Continuous
100
AcDbLine
 10
843.5283823624088
 20
-118.0088114900616
 30
0.0
 11
905.8973496106812
 21
-118.0088114900616
 31
0.0
  0
LINE
  5
976
330
1E
100
AcDbEntity
  8
図面枠
  6
Continuous
100
AcDbLine
 10
865.4305280515584
 20
-135.6348239732659
 30
0.0
 11
909.2348194299159
 21
-135.6348239732659
 31
0.0
  0
LINE
  5
977
330
1E
100
AcDbEntity
  8
図面枠
  6
Continuous
100
AcDbLine
 10
840.3995044068326
 20
-109.5608410099856
 30
0.0
 11
909.2348194299159
 21
-109.5608410099856
 31
0.0
  0
LINE
  5
978
330
1E
100
AcDbEntity
  8
図面枠
  6
Continuous
100
AcDbLine
 10
909.2348194299159
 20
-109.5608410099856
 30
0.0
 11
835.1847078141766
 21
-109.5608410099856
 31
0.0
  0
LINE
  5
979
330
1E
100
AcDbEntity
  8
図面枠
  6
Continuous
100
AcDbLine
 10
909.2348194299159
 20
-125.2052307879538
 30
0.0
 11
840.3995044068326
 21
-125.2052307879538
 31
0.0
  0
MTEXT
  5
97A
330
1E
100
AcDbEntity
  8
図面枠
370
    30
100
AcDbMText
 10
841.0806718038114
 20
-139.5997404826674
 30
0.0
 40
4.589021001542682
 41
75.73895177131276
 71
     1
 72
     5
  1
株式会社　関東油機サービス
 73
     1
 44
1.0
  0
LINE
  5
97B
330
1E
100
AcDbEntity
  8
図面枠
  6
Continuous
100
AcDbLine
 10
849.7861382736194
 20
-125.2052307879538
 30
0.0
 11
835.1847078141766
 21
-125.2052307879538
 31
0.0
  0
LINE
  5
97C
330
1E
100
AcDbEntity
  8
図面枠
  6
Continuous
100
AcDbLine
 10
835.1847078141766
 20
-130.4200273806098
 30
0.0
 11
861.258690777486
 21
-130.4200273806098
 31
0.0
  0
LINE
  5
97D
330
1E
100
AcDbEntity
  8
図面枠
  6
Continuous
100
AcDbLine
 10
835.1847078141766
 20
-135.6348239732659
 30
0.0
 11
849.7861382736194
 21
-135.6348239732659
 31
0.0
  0
MTEXT
  5
97E
330
1E
100
AcDbEntity
  8
ﾚｲﾔ1
100
AcDbMText
 10
843.9610966465154
 20
-121.5318075085277
 30
0.0
 40
3.15
 41
59.13579336078737
 71
     1
 72
     5
  1
{SM-205①}
 73
     1
 44
1.0
1001
ACAD
1000
ACAD_MTEXT_DEFINED_HEIGHT_BEGIN
1070
    46
1040
3.15
1000
ACAD_MTEXT_DEFINED_HEIGHT_END
  0
MTEXT
  5
97F
330
1E
100
AcDbEntity
  8
ﾚｲﾔ1
100
AcDbMText
 10
843.7880464991797
 20
-114.0757578660021
 30
0.0
 40
3.15
 41
59.13579336078737
 71
     1
 72
     5
  1
{200KN50st 単動ジャッキ}
 73
     1
 44
1.0
1001
ACAD
1000
ACAD_MTEXT_DEFINED_HEIGHT_BEGIN
1070
    46
1040
3.15
1000
ACAD_MTEXT_DEFINED_HEIGHT_END
  0
LINE
  5
980
330
1E
100
AcDbEntity
  8
図面枠
  6
Continuous
100
AcDbLine
 10
835.1847078141766
 20
-114.7756376026417
 30
0.0
 11
835.1847078141766
 21
-119.9904341952977
 31
0.0
  0
LINE
  5
981
330
1E
100
AcDbEntity
  8
図面枠
  6
Continuous
100
AcDbLine
 10
835.1847078141766
 20
-119.9904341952977
 30
0.0
 11
835.1847078141766
 21
-125.2052307879538
 31
0.0
  0
LINE
  5
982
330
1E
100
AcDbEntity
  8
図面枠
  6
Continuous
100
AcDbLine
 10
835.1847078141766
 20
-125.2052307879538
 30
0.0
 11
835.1847078141766
 21
-135.6348239732659
 31
0.0
  0
LINE
  5
983
330
1E
100
AcDbEntity
  8
図面枠
  6
Continuous
100
AcDbLine
 10
835.1847078141766
 20
-125.2052307879538
 30
0.0
 11
840.3995044068326
 21
-125.2052307879538
 31
0.0
  0
LINE
  5
984
330
1E
100
AcDbEntity
  8
図面枠
  6
Continuous
100
AcDbLine
 10
835.1847078141766
 20
-109.5608410099856
 30
0.0
 11
835.1847078141766
 21
-125.2052307879538
 31
0.0
  0
LINE
  5
985
330
1E
100
AcDbEntity
  8
図面枠
  6
Continuous
100
AcDbLine
 10
840.3995044068326
 20
-125.2052307879538
 30
0.0
 11
840.3995044068326
 21
-109.5608410099856
 31
0.0
  0
LINE
  5
986
330
1E
100
AcDbEntity
  8
図面枠
  6
Continuous
100
AcDbLine
 10
835.1847078141766
 20
-135.6348239732659
 30
0.0
 11
835.1847078141766
 21
-125.2052307879538
 31
0.0
  0
LINE
  5
987
330
1E
100
AcDbEntity
  8
図面枠
  6
Continuous
100
AcDbLine
 10
835.1847078141766
 20
-109.5608410099856
 30
0.0
 11
835.1847078141766
 21
-114.7756376026417
 31
0.0
  0
LINE
  5
988
330
1E
100
AcDbEntity
  8
図面枠
  6
Continuous
100
AcDbLine
 10
840.3995044068326
 20
-109.5608410099856
 30
0.0
 11
835.1847078141766
 21
-109.5608410099856
 31
0.0
  0
LINE
  5
989
330
1E
100
AcDbEntity
  8
図面枠
  6
Continuous
100
AcDbLine
 10
840.3995044068326
 20
-125.2052307879538
 30
0.0
 11
840.3995044068326
 21
-109.5608410099856
 31
0.0
  0
TEXT
  5
98B
330
1E
100
AcDbEntity
  8
図面枠
100
AcDbText
 10
837.7514534248223
 20
-135.0729410330867
 30
0.0
 40
3.128877955597285
  1
１：2
100
AcDbText
  0
TEXT
  5
98C
330
1E
100
AcDbEntity
  8
図面枠
100
AcDbText
 10
837.0300500550841
 20
-129.9407132533132
 30
0.0
 40
4.171837274129713
  1
尺度
 41
1.125
100
AcDbText
  0
LINE
  5
98D
330
1E
100
AcDbEntity
  8
図面枠
  6
Continuous
100
AcDbLine
 10
865.4305280515584
 20
-135.6348239732659
 30
0.0
 11
865.4305280515584
 21
-125.2052307879538
 31
0.0
  0
LINE
  5
98E
330
1E
100
AcDbEntity
  8
図面枠
  6
Continuous
100
AcDbLine
 10
865.4305280515584
 20
-125.2052307879538
 30
0.0
 11
861.258690777486
 21
-125.2052307879538
 31
0.0
  0
LINE
  5
98F
330
1E
100
AcDbEntity
  8
図面枠
  6
Continuous
100
AcDbLine
 10
861.258690777486
 20
-135.6348239732659
 30
0.0
 11
865.4305280515584
 21
-135.6348239732659
 31
0.0
  0
LINE
  5
990
330
1E
100
AcDbEntity
  8
図面枠
  6
Continuous
100
AcDbLine
 10
861.258690777486
 20
-125.2052307879538
 30
0.0
 11
849.7861382736194
 21
-125.2052307879538
 31
0.0
  0
LINE
  5
991
330
1E
100
AcDbEntity
  8
図面枠
  6
Continuous
100
AcDbLine
 10
861.258690777486
 20
-125.2052307879538
 30
0.0
 11
861.258690777486
 21
-135.6348239732659
 31
0.0
  0
LINE
  5
992
330
1E
100
AcDbEntity
  8
図面枠
  6
Continuous
100
AcDbLine
 10
849.7861382736194
 20
-125.2052307879538
 30
0.0
 11
849.7861382736194
 21
-135.6348239732659
 31
0.0
  0
LINE
  5
993
330
1E
100
AcDbEntity
  8
図面枠
  6
Continuous
100
AcDbLine
 10
861.258690777486
 20
-135.6348239732659
 30
0.0
 11
861.258690777486
 21
-125.2052307879538
 31
0.0
  0
LINE
  5
994
330
1E
100
AcDbEntity
  8
図面枠
  6
Continuous
100
AcDbLine
 10
849.7861382736194
 20
-135.6348239732659
 30
0.0
 11
861.258690777486
 21
-135.6348239732659
 31
0.0
  0
LINE
  5
995
330
1E
100
AcDbEntity
  8
図面枠
  6
Continuous
100
AcDbLine
 10
865.4305280515584
 20
-125.2052307879538
 30
0.0
 11
865.4305280515584
 21
-135.6348239732659
 31
0.0
  0
LINE
  5
996
330
1E
100
AcDbEntity
  8
図面枠
  6
Continuous
100
AcDbLine
 10
849.7861382736194
 20
-135.6348239732659
 30
0.0
 11
849.7861382736194
 21
-125.2052307879538
 31
0.0
  0
TEXT
  5
997
330
1E
100
AcDbEntity
  8
図面枠
100
AcDbText
 10
861.9366143345144
 20
-134.2789768592091
 30
0.0
 40
3.128877955597285
  1
番
100
AcDbText
  0
TEXT
  5
998
330
1E
100
AcDbEntity
  8
図面枠
100
AcDbText
 10
861.9366143345144
 20
-129.3526522438959
 30
0.0
 40
3.128877955597285
  1
図
100
AcDbText
  0
LINE
  5
999
330
1E
100
AcDbEntity
  8
図面枠
  6
Continuous
100
AcDbLine
 10
909.2348194299159
 20
-109.5608410099856
 30
0.0
 11
909.2348194299159
 21
-125.2052307879538
 31
0.0
  0
LINE
  5
99A
330
1E
100
AcDbEntity
  8
図面枠
  6
Continuous
100
AcDbLine
 10
909.2348194299159
 20
-135.6348239732659
 30
0.0
 11
909.2348194299159
 21
-125.2052307879538
 31
0.0
  0
LINE
  5
99B
330
1E
100
AcDbEntity
  8
ﾚｲﾔ1
100
AcDbLine
 10
809.7412511955665
 20
82.36489949284731
 30
0.0
 11
898.2382993972171
 21
82.36489949284731
 31
0.0
  0
LINE
  5
99C
330
1E
100
AcDbEntity
  8
ﾚｲﾔ1
100
AcDbLine
 10
809.7412511955665
 20
98.56489949285896
 30
0.0
 11
898.2382993972171
 21
98.56489949285896
 31
0.0
  0
LINE
  5
99D
330
1E
100
AcDbEntity
  8
ﾚｲﾔ1
100
AcDbLine
 10
809.7412511955665
 20
114.7648994928124
 30
0.0
 11
898.2382993972171
 21
114.7648994928124
 31
0.0
  0
LINE
  5
99E
330
1E
100
AcDbEntity
  8
ﾚｲﾔ1
100
AcDbLine
 10
809.7412511955665
 20
106.6648994928357
 30
0.0
 11
898.2382993972171
 21
106.6648994928357
 31
0.0
  0
LINE
  5
99F
330
1E
100
AcDbEntity
  8
ﾚｲﾔ1
100
AcDbLine
 10
809.7412511955665
 20
122.8648994928473
 30
0.0
 11
898.2382993972171
 21
122.8648994928473
 31
0.0
  0
LINE
  5
9A0
330
1E
100
AcDbEntity
  8
ﾚｲﾔ1
100
AcDbLine
 10
809.7412511955665
 20
90.46489949282403
 30
0.0
 11
898.2382993972171
 21
90.46489949282403
 31
0.0
  0
LINE
  5
9A1
330
1E
100
AcDbEntity
  8
ﾚｲﾔ1
100
AcDbLine
 10
809.7412511955665
 20
74.2648994928706
 30
0.0
 11
898.2382993972171
 21
74.2648994928706
 31
0.0
  0
MTEXT
  5
9A2
330
1E
100
AcDbEntity
  8
ﾚｲﾔ1
100
AcDbMText
 10
810.0507813632614
 20
77.29849753048182
 30
0.0
 40
2.699999999999998
 41
434.6343890161323
 71
     1
 72
     5
  1
重　　量
 73
     1
 44
1.0
  0
MTEXT
  5
9A3
330
1E
100
AcDbEntity
  8
ﾚｲﾔ1
100
AcDbMText
 10
810.2201786528351
 20
126.4508575030151
 30
0.0
 40
3.15
 41
434.6343890161323
 71
     1
 72
     5
  1
能　　力
 73
     1
 44
1.0
  0
MTEXT
  5
9A4
330
1E
100
AcDbEntity
  8
ﾚｲﾔ1
100
AcDbMText
 10
810.6663523857317
 20
85.982986641374
 30
0.0
 40
2.699999999999998
 41
434.6343890161323
 71
     1
 72
     5
  1
ロ　ッ　ド　径
 73
     1
 44
1.0
  0
MTEXT
  5
9A5
330
1E
100
AcDbEntity
  8
ﾚｲﾔ1
100
AcDbMText
 10
810.1211380479692
 20
102.3952862159014
 30
0.0
 40
3.15
 41
434.6343890161323
 71
     1
 72
     5
  1
使　用　圧　力
 73
     1
 44
1.0
  0
MTEXT
  5
9A6
330
1E
100
AcDbEntity
  8
ﾚｲﾔ1
100
AcDbMText
 10
810.174946969277
 20
110.2679039370516
 30
0.0
 40
3.15
 41
434.634389016132
 71
     1
 72
     5
  1
{ス　ト　ロ　-　ク}
 73
     1
 44
1.0
1001
ACAD
1000
ACAD_MTEXT_DEFINED_HEIGHT_BEGIN
1070
    46
1040
6.3
1000
ACAD_MTEXT_DEFINED_HEIGHT_END
  0
MTEXT
  5
9A7
330
1E
100
AcDbEntity
  8
ﾚｲﾔ1
100
AcDbMText
 10
810.143886203314
 20
94.43572360599791
 30
0.0
 40
3.15
 41
434.6343890161323
 71
     1
 72
     5
  1
受　圧　面　積
 73
     1
 44
1.0
  0
MTEXT
  5
9A8
330
1E
100
AcDbEntity
  8
ﾚｲﾔ1
100
AcDbMText
 10
810.0601172398203
 20
118.7529964023517
 30
0.0
 40
3.15
 41
434.6343890161323
 71
     1
 72
     5
  1
機　械　高　さ
 73
     1
 44
1.0
  0
TEXT
  5
9A9
330
1E
100
AcDbEntity
  8
ﾚｲﾔ1
100
AcDbText
 10
892.1342364345221
 20
123.835133526499
 30
0.0
 40
3.0
  1
KN
 50
360.0
100
AcDbText
  0
TEXT
  5
9AA
330
1E
100
AcDbEntity
  8
ﾚｲﾔ1
100
AcDbText
 10
872.2985837603812
 20
123.925426793193
 30
0.0
 40
3.0
  1
200
 50
360.0
100
AcDbText
  0
TEXT
  5
9AB
330
1E
100
AcDbEntity
  8
ﾚｲﾔ1
100
AcDbText
 10
892.1342364345221
 20
115.6538350089351
 30
0.0
 40
3.0
  1
mm
 50
360.0
100
AcDbText
  0
MTEXT
  5
9AC
330
1E
100
AcDbEntity
  8
ﾚｲﾔ1
100
AcDbMText
 10
871.4217241291083
 20
77.8972594458275
 30
0.0
 40
3.0
 41
0.0
 71
     1
 72
     5
  1
{約}
 73
     1
 44
1.0
1001
ACAD
1000
ACAD_MTEXT_DEFINED_HEIGHT_BEGIN
1070
    46
1040
6.0
1000
ACAD_MTEXT_DEFINED_HEIGHT_END
  0
MTEXT
  5
9AD
330
1E
100
AcDbEntity
  8
ﾚｲﾔ1
100
AcDbMText
 10
872.23241725918
 20
85.81356919076205
 30
0.0
 40
3.0
 41
0.0
 71
     1
 72
     5
  1
{Φ}
 73
     1
 44
1.0
1001
ACAD
1000
ACAD_MTEXT_DEFINED_HEIGHT_BEGIN
1070
    46
1040
12.0
1000
ACAD_MTEXT_DEFINED_HEIGHT_END
  0
TEXT
  5
9AE
330
1E
100
AcDbEntity
  8
ﾚｲﾔ1
100
AcDbText
 10
890.1331287401156
 20
91.06674020437202
 30
0.0
 40
3.0
  1
cm2
 50
360.0
100
AcDbText
  0
TEXT
  5
9AF
330
1E
100
AcDbEntity
  8
ﾚｲﾔ1
100
AcDbText
 10
892.1342364345221
 20
107.5053851168734
 30
0.0
 40
3.0
  1
mm
 50
360.0
100
AcDbText
  0
TEXT
  5
9B0
330
1E
100
AcDbEntity
  8
ﾚｲﾔ1
100
AcDbText
 10
892.1342364345221
 20
75.06830108494177
 30
0.0
 40
3.0
  1
Kg
 50
360.0
100
AcDbText
  0
TEXT
  5
9B1
330
1E
100
AcDbEntity
  8
ﾚｲﾔ1
100
AcDbText
 10
890.1331287401156
 20
99.56538394299713
 30
0.0
 40
3.0
  1
Mpa
 50
360.0
100
AcDbText
  0
TEXT
  5
9B2
330
1E
100
AcDbEntity
  8
ﾚｲﾔ1
100
AcDbText
 10
892.1342364345221
 20
83.43903311006869
 30
0.0
 40
3.0
  1
mm
 50
360.0
100
AcDbText
  0
TEXT
  5
9B3
330
1E
100
AcDbEntity
  8
ﾚｲﾔ1
100
AcDbText
 10
872.2985837603812
 20
115.6220578946188
 30
0.0
 40
3.0
  1
155
 50
360.0
100
AcDbText
  0
TEXT
  5
9B4
330
1E
100
AcDbEntity
  8
ﾚｲﾔ1
100
AcDbText
 10
872.2985837603812
 20
107.5035247378066
 30
0.0
 40
3.0
  1
50
 50
360.0
100
AcDbText
  0
TEXT
  5
9B5
330
1E
100
AcDbEntity
  8
ﾚｲﾔ1
100
AcDbText
 10
872.2985837603812
 20
99.29759110442973
 30
0.0
 40
3.0
  1
60.1
 50
360.0
100
AcDbText
  0
TEXT
  5
9B6
330
1E
100
AcDbEntity
  8
ﾚｲﾔ1
100
AcDbText
 10
872.2985837603812
 20
91.38299239295446
 30
0.0
 40
3.0
  1
33.2
 50
360.0
100
AcDbText
  0
TEXT
  5
9B7
330
1E
100
AcDbEntity
  8
ﾚｲﾔ1
100
AcDbText
 10
875.2595030525301
 20
83.10127225002651
 30
0.0
 40
3.0
  1
42
 50
360.0
100
AcDbText
  0
TEXT
  5
9B8
330
1E
100
AcDbEntity
  8
ﾚｲﾔ1
100
AcDbText
 10
876.0424631390672
 20
74.85573925150237
 30
0.0
 40
3.0
  1
8
 50
360.0
100
AcDbText
  0
LINE
  5
9B9
330
1E
100
AcDbEntity
  8
ﾚｲﾔ1
100
AcDbLine
 10
809.7412511955665
 20
130.9659843437504
 30
0.0
 11
821.2159610673737
 21
130.9623046432636
 31
0.0
  0
MTEXT
  5
9BA
330
1E
100
AcDbEntity
  8
ﾚｲﾔ1
100
AcDbMText
 10
810.3465816630235
 20
133.9510764109684
 30
0.0
 40
2.699999999999998
 41
434.6343890161323
 71
     1
 72
     5
  1
仕  様
 73
     1
 44
1.0
  0
LINE
  5
9BB
330
1E
100
AcDbEntity
  8
図面枠
  6
Continuous
100
AcDbLine
 10
909.2348194299159
 20
141.7923547563507
 30
0.0
 11
909.2348194299159
 21
-135.6348239732659
 31
0.0
  0
LINE
  5
9BC
330
1E
100
AcDbEntity
  8
図面枠
  6
Continuous
100
AcDbLine
 10
912.3636973855794
 20
144.921232711956
 30
0.0
 11
912.3636973855794
 21
-138.7637019288712
 31
0.0
  0
TEXT
  5
B35
102
{ACAD_REACTORS
330
B37
102
}
330
1E
100
AcDbEntity
  8
図面枠
100
AcDbText
 10
835.9792006632821
 20
-115.7001613054507
 30
0.0
 40
4.229241755021737
  1
名
100
AcDbText
  0
TEXT
  5
B36
102
{ACAD_REACTORS
330
B37
102
}
330
1E
100
AcDbEntity
  8
図面枠
100
AcDbText
 10
835.9792006632821
 20
-122.3589757614838
 30
0.0
 40
4.229241755021737
  1
称
100
AcDbText
  0
ENDSEC
  0
SECTION
  2
OBJECTS
  0
DICTIONARY
  5
C
330
0
100
AcDbDictionary
281
     1
  3
ACAD_DETAILVIEWSTYLE
350
9C1
  3
ACAD_GROUP
350
D
  3
ACAD_LAYOUT
350
19
  3
ACAD_MLINESTYLE
350
16
  3
ACAD_PLOTSETTINGS
350
18
  3
ACAD_PLOTSTYLENAME
350
E
  3
ACAD_SCALELIST
350
888
  3
ACAD_SECTIONVIEWSTYLE
350
9C2
  3
AcDbVariableDictionary
350
8CD
  3
APPDATA
350
8F2
  3
DWGPROPS
350
B38
  0
DICTIONARY
  5
968
330
2
100
AcDbDictionary
280
     1
281
     1
  3
ACAD_LAYERSTATES
360
969
  0
DICTIONARY
  5
8B0
330
10
100
AcDbDictionary
280
     1
281
     1
  3
ADSK_XREC_LAYER_RECONCILED
360
8B1
  0
DICTIONARY
  5
8B2
330
2A
100
AcDbDictionary
280
     1
281
     1
  3
ADSK_XREC_LAYER_RECONCILED
360
8B3
  0
DICTIONARY
  5
8B4
330
30
100
AcDbDictionary
280
     1
281
     1
  3
ADSK_XREC_LAYER_RECONCILED
360
8B5
  0
DICTIONARY
  5
8B6
330
31
100
AcDbDictionary
280
     1
281
     1
  3
ADSK_XREC_LAYER_RECONCILED
360
8B7
  0
DICTIONARY
  5
8B8
330
38
100
AcDbDictionary
280
     1
281
     1
  3
ADSK_XREC_LAYER_RECONCILED
360
8B9
  0
DICTIONARY
  5
8FB
330
8FA
100
AcDbDictionary
280
     1
281
     1
  3
ADSK_XREC_LAYER_RECONCILED
360
8FC
  0
DICTIONARY
  5
8FE
330
8FD
100
AcDbDictionary
280
     1
281
     1
  3
ADSK_XREC_LAYER_RECONCILED
360
8FF
  0
DICTIONARY
  5
AF2
330
1E
100
AcDbDictionary
280
     1
281
     1
  3
DIM_BOUNDING_BOXES_V1
360
AF3
  0
DICTIONARY
  5
9C1
102
{ACAD_REACTORS
330
C
102
}
330
C
100
AcDbDictionary
281
     1
  0
DICTIONARY
  5
D
102
{ACAD_REACTORS
330
C
102
}
330
C
100
AcDbDictionary
281
     1
  3
*A1
350
B37
  0
DICTIONARY
  5
19
102
{ACAD_REACTORS
330
C
102
}
330
C
100
AcDbDictionary
281
     1
  3
Model
350
21
  3
ﾚｲｱｳﾄ1
350
1D
  0
DICTIONARY
  5
16
102
{ACAD_REACTORS
330
C
102
}
330
C
100
AcDbDictionary
281
     1
  3
Standard
350
17
  0
DICTIONARY
  5
18
102
{ACAD_REACTORS
330
C
102
}
330
C
100
AcDbDictionary
281
     1
  0
ACDBDICTIONARYWDFLT
  5
E
102
{ACAD_REACTORS
330
C
102
}
330
C
100
AcDbDictionary
281
     1
  3
Normal
350
F
100
AcDbDictionaryWithDefault
340
F
  0
DICTIONARY
  5
888
102
{ACAD_REACTORS
330
C
102
}
330
C
100
AcDbDictionary
281
     1
  3
A0
350
889
  3
A1
350
88A
  3
A2
350
88B
  3
A3
350
88C
  3
A4
350
88D
  3
A5
350
88E
  3
A6
350
88F
  3
A7
350
890
  3
A8
350
891
  3
A9
350
892
  3
B0
350
893
  3
B1
350
894
  3
B2
350
895
  3
B3
350
896
  3
B4
350
897
  3
B5
350
898
  3
B6
350
899
  3
B7
350
89A
  3
B8
350
89B
  3
B9
350
89C
  3
C0
350
89D
  3
C1
350
89E
  3
C2
350
89F
  3
C3
350
8A0
  3
C4
350
8A1
  3
C5
350
8A2
  3
C6
350
8A3
  3
C7
350
8A4
  3
C8
350
8A5
  3
C9
350
8A6
  3
D0
350
8A7
  3
D1
350
8A8
  3
D2
350
8A9
  0
DICTIONARY
  5
9C2
102
{ACAD_REACTORS
330
C
102
}
330
C
100
AcDbDictionary
281
     1
  0
DICTIONARY
  5
8CD
102
{ACAD_REACTORS
330
C
102
}
330
C
100
AcDbDictionary
281
     1
  3
DIMASSOC
350
8D3
  3
INDEXCTL
350
8D2
  3
PROJECTNAME
350
8DE
  3
SORTENTS
350
8D1
  0
DICTIONARY
  5
8F2
102
{ACAD_REACTORS
330
C
102
}
330
C
100
AcDbDictionary
281
     1
  0
XRECORD
  5
B38
102
{ACAD_REACTORS
330
C
102
}
330
C
100
AcDbXrecord
280
     1
  1
DWGPROPS COOKIE
  2

  3

  4

  6

  7

  8
Hiroki Noike
  9

300
=
301
=
302
=
303
=
304
=
305
=
306
=
307
=
308
=
309
=
 40
0.0
 41
2452359.056860417
 42
2459744.039934271
  1

 90
        0
  0
DICTIONARY
  5
969
102
{ACAD_REACTORS
330
968
102
}
330
968
100
AcDbDictionary
281
     1
  0
XRECORD
  5
8B1
102
{ACAD_REACTORS
330
8B0
102
}
330
8B0
100
AcDbXrecord
280
     1
290
     1
  0
XRECORD
  5
8B3
102
{ACAD_REACTORS
330
8B2
102
}
330
8B2
100
AcDbXrecord
280
     1
290
     1
  0
XRECORD
  5
8B5
102
{ACAD_REACTORS
330
8B4
102
}
330
8B4
100
AcDbXrecord
280
     1
290
     1
  0
XRECORD
  5
8B7
102
{ACAD_REACTORS
330
8B6
102
}
330
8B6
100
AcDbXrecord
280
     1
290
     1
  0
XRECORD
  5
8B9
102
{ACAD_REACTORS
330
8B8
102
}
330
8B8
100
AcDbXrecord
280
     1
290
     1
  0
XRECORD
  5
8FC
102
{ACAD_REACTORS
330
8FB
102
}
330
8FB
100
AcDbXrecord
280
     1
290
     1
  0
XRECORD
  5
8FF
102
{ACAD_REACTORS
330
8FE
102
}
330
8FE
100
AcDbXrecord
280
     1
290
     1
  0
DICTIONARY
  5
AF3
102
{ACAD_REACTORS
330
AF2
102
}
330
AF2
100
AcDbDictionary
281
     1
  0
GROUP
  5
B37
102
{ACAD_REACTORS
330
D
102
}
330
D
100
AcDbGroup
300

 70
     1
 71
     1
340
B36
340
B35
  0
LAYOUT
  5
21
102
{ACAD_REACTORS
330
19
102
}
330
19
100
AcDbPlotSettings
  1

  2
\\Souko01\倉庫プリンタ
  4
A4
  6

 40
5.873749732971191
 41
5.873747825622558
 42
5.873748779296875
 43
5.873748779296875
 44
209.9733276367187
 45
296.9259948730469
 46
0.0
 47
0.0
 48
0.0
 49
0.0
140
0.0
141
0.0
142
1.0
143
1.0
 70
 11952
 72
     0
 73
     1
 74
     0
  7

 75
     0
147
1.0
148
3974.415640250432
149
3815.786494082134
100
AcDbLayout
  1
Model
 70
     1
 71
     0
 10
0.0
 20
0.0
 11
12.0
 21
9.0
 12
0.0
 22
0.0
 32
0.0
 14
490.7027776465296
 24
-156.9888778231442
 34
0.0
 15
936.2091366552816
 25
158.0111471657539
 35
0.0
146
0.0
 13
0.0
 23
0.0
 33
0.0
 16
1.0
 26
0.0
 36
0.0
 17
0.0
 27
1.0
 37
0.0
 76
     0
330
1E
331
8DF
  0
LAYOUT
  5
1D
102
{ACAD_REACTORS
330
19
102
}
330
19
100
AcDbPlotSettings
  1

  2
\\Souko01\倉庫プリンタ
  4

  6

 40
0.0
 41
0.0
 42
0.0
 43
0.0
 44
0.0
 45
0.0
 46
0.0
 47
0.0
 48
0.0
 49
0.0
140
0.0
141
0.0
142
1.0
143
1.0
 70
   688
 72
     0
 73
     0
 74
     5
  7

 75
    16
147
1.0
148
0.0
149
0.0
100
AcDbLayout
  1
ﾚｲｱｳﾄ1
 70
     1
 71
     1
 10
0.0
 20
0.0
 11
12.0
 21
9.0
 12
0.0
 22
0.0
 32
0.0
 14
1.000000000000000E+20
 24
1.000000000000000E+20
 34
1.000000000000000E+20
 15
-1.000000000000000E+20
 25
-1.000000000000000E+20
 35
-1.000000000000000E+20
146
0.0
 13
0.0
 23
0.0
 33
0.0
 16
1.0
 26
0.0
 36
0.0
 17
0.0
 27
1.0
 37
0.0
 76
     0
330
1A
  0
MLINESTYLE
  5
17
102
{ACAD_REACTORS
330
16
102
}
330
16
100
AcDbMlineStyle
  2
STANDARD
 70
     0
  3

 62
   256
 51
90.0
 52
90.0
 71
     2
 49
0.5
 62
   256
  6
BYLAYER
 49
-0.5
 62
   256
  6
BYLAYER
  0
ACDBPLACEHOLDER
  5
F
102
{ACAD_REACTORS
330
E
102
}
330
E
  0
SCALE
  5
889
102
{ACAD_REACTORS
330
888
102
}
330
888
100
AcDbScale
 70
     0
300
1:1
140
1.0
141
1.0
290
     1
1001
ACAD
1000
AcRTDxfName
1000
SCALE
  0
SCALE
  5
88A
102
{ACAD_REACTORS
330
888
102
}
330
888
100
AcDbScale
 70
     0
300
1:2
140
1.0
141
2.0
290
     0
1001
ACAD
1000
AcRTDxfName
1000
SCALE
  0
SCALE
  5
88B
102
{ACAD_REACTORS
330
888
102
}
330
888
100
AcDbScale
 70
     0
300
1:4
140
1.0
141
4.0
290
     0
1001
ACAD
1000
AcRTDxfName
1000
SCALE
  0
SCALE
  5
88C
102
{ACAD_REACTORS
330
888
102
}
330
888
100
AcDbScale
 70
     0
300
1:5
140
1.0
141
5.0
290
     0
1001
ACAD
1000
AcRTDxfName
1000
SCALE
  0
SCALE
  5
88D
102
{ACAD_REACTORS
330
888
102
}
330
888
100
AcDbScale
 70
     0
300
1:8
140
1.0
141
8.0
290
     0
1001
ACAD
1000
AcRTDxfName
1000
SCALE
  0
SCALE
  5
88E
102
{ACAD_REACTORS
330
888
102
}
330
888
100
AcDbScale
 70
     0
300
1:10
140
1.0
141
10.0
290
     0
1001
ACAD
1000
AcRTDxfName
1000
SCALE
  0
SCALE
  5
88F
102
{ACAD_REACTORS
330
888
102
}
330
888
100
AcDbScale
 70
     0
300
1:16
140
1.0
141
16.0
290
     0
1001
ACAD
1000
AcRTDxfName
1000
SCALE
  0
SCALE
  5
890
102
{ACAD_REACTORS
330
888
102
}
330
888
100
AcDbScale
 70
     0
300
1:20
140
1.0
141
20.0
290
     0
1001
ACAD
1000
AcRTDxfName
1000
SCALE
  0
SCALE
  5
891
102
{ACAD_REACTORS
330
888
102
}
330
888
100
AcDbScale
 70
     0
300
1:30
140
1.0
141
30.0
290
     0
1001
ACAD
1000
AcRTDxfName
1000
SCALE
  0
SCALE
  5
892
102
{ACAD_REACTORS
330
888
102
}
330
888
100
AcDbScale
 70
     0
300
1:40
140
1.0
141
40.0
290
     0
1001
ACAD
1000
AcRTDxfName
1000
SCALE
  0
SCALE
  5
893
102
{ACAD_REACTORS
330
888
102
}
330
888
100
AcDbScale
 70
     0
300
1:50
140
1.0
141
50.0
290
     0
1001
ACAD
1000
AcRTDxfName
1000
SCALE
  0
SCALE
  5
894
102
{ACAD_REACTORS
330
888
102
}
330
888
100
AcDbScale
 70
     0
300
1:100
140
1.0
141
100.0
290
     0
1001
ACAD
1000
AcRTDxfName
1000
SCALE
  0
SCALE
  5
895
102
{ACAD_REACTORS
330
888
102
}
330
888
100
AcDbScale
 70
     0
300
2:1
140
2.0
141
1.0
290
     0
1001
ACAD
1000
AcRTDxfName
1000
SCALE
  0
SCALE
  5
896
102
{ACAD_REACTORS
330
888
102
}
330
888
100
AcDbScale
 70
     0
300
4:1
140
4.0
141
1.0
290
     0
1001
ACAD
1000
AcRTDxfName
1000
SCALE
  0
SCALE
  5
897
102
{ACAD_REACTORS
330
888
102
}
330
888
100
AcDbScale
 70
     0
300
8:1
140
8.0
141
1.0
290
     0
1001
ACAD
1000
AcRTDxfName
1000
SCALE
  0
SCALE
  5
898
102
{ACAD_REACTORS
330
888
102
}
330
888
100
AcDbScale
 70
     0
300
10:1
140
10.0
141
1.0
290
     0
1001
ACAD
1000
AcRTDxfName
1000
SCALE
  0
SCALE
  5
899
102
{ACAD_REACTORS
330
888
102
}
330
888
100
AcDbScale
 70
     0
300
100:1
140
100.0
141
1.0
290
     0
1001
ACAD
1000
AcRTDxfName
1000
SCALE
  0
SCALE
  5
89A
102
{ACAD_REACTORS
330
888
102
}
330
888
100
AcDbScale
 70
     0
300
1/128" = 1'-0"
140
0.0078125
141
12.0
290
     0
1001
ACAD
1000
AcRTDxfName
1000
SCALE
  0
SCALE
  5
89B
102
{ACAD_REACTORS
330
888
102
}
330
888
100
AcDbScale
 70
     0
300
1/64" = 1'-0"
140
0.015625
141
12.0
290
     0
1001
ACAD
1000
AcRTDxfName
1000
SCALE
  0
SCALE
  5
89C
102
{ACAD_REACTORS
330
888
102
}
330
888
100
AcDbScale
 70
     0
300
1/32" = 1'-0"
140
0.03125
141
12.0
290
     0
1001
ACAD
1000
AcRTDxfName
1000
SCALE
  0
SCALE
  5
89D
102
{ACAD_REACTORS
330
888
102
}
330
888
100
AcDbScale
 70
     0
300
1/16" = 1'-0"
140
0.0625
141
12.0
290
     0
1001
ACAD
1000
AcRTDxfName
1000
SCALE
  0
SCALE
  5
89E
102
{ACAD_REACTORS
330
888
102
}
330
888
100
AcDbScale
 70
     0
300
3/32" = 1'-0"
140
0.09375
141
12.0
290
     0
1001
ACAD
1000
AcRTDxfName
1000
SCALE
  0
SCALE
  5
89F
102
{ACAD_REACTORS
330
888
102
}
330
888
100
AcDbScale
 70
     0
300
1/8" = 1'-0"
140
0.125
141
12.0
290
     0
1001
ACAD
1000
AcRTDxfName
1000
SCALE
  0
SCALE
  5
8A0
102
{ACAD_REACTORS
330
888
102
}
330
888
100
AcDbScale
 70
     0
300
3/16" = 1'-0"
140
0.1875
141
12.0
290
     0
1001
ACAD
1000
AcRTDxfName
1000
SCALE
  0
SCALE
  5
8A1
102
{ACAD_REACTORS
330
888
102
}
330
888
100
AcDbScale
 70
     0
300
1/4" = 1'-0"
140
0.25
141
12.0
290
     0
1001
ACAD
1000
AcRTDxfName
1000
SCALE
  0
SCALE
  5
8A2
102
{ACAD_REACTORS
330
888
102
}
330
888
100
AcDbScale
 70
     0
300
3/8" = 1'-0"
140
0.375
141
12.0
290
     0
1001
ACAD
1000
AcRTDxfName
1000
SCALE
  0
SCALE
  5
8A3
102
{ACAD_REACTORS
330
888
102
}
330
888
100
AcDbScale
 70
     0
300
1/2" = 1'-0"
140
0.5
141
12.0
290
     0
1001
ACAD
1000
AcRTDxfName
1000
SCALE
  0
SCALE
  5
8A4
102
{ACAD_REACTORS
330
888
102
}
330
888
100
AcDbScale
 70
     0
300
3/4" = 1'-0"
140
0.75
141
12.0
290
     0
1001
ACAD
1000
AcRTDxfName
1000
SCALE
  0
SCALE
  5
8A5
102
{ACAD_REACTORS
330
888
102
}
330
888
100
AcDbScale
 70
     0
300
1" = 1'-0"
140
1.0
141
12.0
290
     0
1001
ACAD
1000
AcRTDxfName
1000
SCALE
  0
SCALE
  5
8A6
102
{ACAD_REACTORS
330
888
102
}
330
888
100
AcDbScale
 70
     0
300
1-1/2" = 1'-0"
140
1.5
141
12.0
290
     0
1001
ACAD
1000
AcRTDxfName
1000
SCALE
  0
SCALE
  5
8A7
102
{ACAD_REACTORS
330
888
102
}
330
888
100
AcDbScale
 70
     0
300
3" = 1'-0"
140
3.0
141
12.0
290
     0
1001
ACAD
1000
AcRTDxfName
1000
SCALE
  0
SCALE
  5
8A8
102
{ACAD_REACTORS
330
888
102
}
330
888
100
AcDbScale
 70
     0
300
6" = 1'-0"
140
6.0
141
12.0
290
     0
1001
ACAD
1000
AcRTDxfName
1000
SCALE
  0
SCALE
  5
8A9
102
{ACAD_REACTORS
330
888
102
}
330
888
100
AcDbScale
 70
     0
300
1'-0" = 1'-0"
140
12.0
141
12.0
290
     0
1001
ACAD
1000
AcRTDxfName
1000
SCALE
  0
DICTIONARYVAR
  5
8D3
102
{ACAD_REACTORS
330
8CD
102
}
330
8CD
100
DictionaryVariables
280
     0
  1
1
  0
DICTIONARYVAR
  5
8D2
102
{ACAD_REACTORS
330
8CD
102
}
330
8CD
100
DictionaryVariables
280
     0
  1
0
  0
DICTIONARYVAR
  5
8DE
102
{ACAD_REACTORS
330
8CD
102
}
330
8CD
100
DictionaryVariables
280
     0
  1

  0
DICTIONARYVAR
  5
8D1
102
{ACAD_REACTORS
330
8CD
102
}
330
8CD
100
DictionaryVariables
280
     0
  1
127
  0
ENDSEC
  0
EOF
