  0
SECTION
  2
HEADER
  9
$ACADVER
  1
AC1015
  9
$ACADMAINTVER
 70
     6
  9
$DWGCODEPAGE
  3
ANSI_932
  9
$INSBASE
 10
0.0
 20
0.0
 30
0.0
  9
$EXTMIN
 10
1175.720386501227
 20
583.2423716607747
 30
0.0
  9
$EXTMAX
 10
1888.530560915231
 20
1087.242411643012
 30
0.0
  9
$LIMMIN
 10
0.0
 20
0.0
  9
$LIMMAX
 10
630.0
 20
445.5
  9
$ORTHOMODE
 70
     0
  9
$REGENMODE
 70
     1
  9
$FILLMODE
 70
     1
  9
$QTEXTMODE
 70
     0
  9
$MIRRTEXT
 70
     1
  9
$LTSCALE
 40
12.6
  9
$ATTMODE
 70
     1
  9
$TEXTSIZE
 40
0.2
  9
$TRACEWID
 40
0.05
  9
$TEXTSTYLE
  7
STANDARD
  9
$CLAYER
  8
ﾚｲﾔ1
  9
$CELTYPE
  6
CONTINUOUS
  9
$CECOLOR
 62
     8
  9
$CELTSCALE
 40
1.0
  9
$DISPSILH
 70
     0
  9
$DIMSCALE
 40
1.0
  9
$DIMASZ
 40
0.18
  9
$DIMEXO
 40
0.0625
  9
$DIMDLI
 40
0.38
  9
$DIMRND
 40
0.0
  9
$DIMDLE
 40
0.0
  9
$DIMEXE
 40
0.18
  9
$DIMTP
 40
0.0
  9
$DIMTM
 40
0.0
  9
$DIMTXT
 40
0.18
  9
$DIMCEN
 40
0.09
  9
$DIMTSZ
 40
0.0
  9
$DIMTOL
 70
     0
  9
$DIMLIM
 70
     0
  9
$DIMTIH
 70
     1
  9
$DIMTOH
 70
     1
  9
$DIMSE1
 70
     0
  9
$DIMSE2
 70
     0
  9
$DIMTAD
 70
     0
  9
$DIMZIN
 70
     0
  9
$DIMBLK
  1

  9
$DIMASO
 70
     1
  9
$DIMSHO
 70
     1
  9
$DIMPOST
  1

  9
$DIMAPOST
  1

  9
$DIMALT
 70
     0
  9
$DIMALTD
 70
     2
  9
$DIMALTF
 40
25.4
  9
$DIMLFAC
 40
1.0
  9
$DIMTOFL
 70
     0
  9
$DIMTVP
 40
0.0
  9
$DIMTIX
 70
     0
  9
$DIMSOXD
 70
     0
  9
$DIMSAH
 70
     0
  9
$DIMBLK1
  1

  9
$DIMBLK2
  1

  9
$DIMSTYLE
  2
Standard
  9
$DIMCLRD
 70
     0
  9
$DIMCLRE
 70
     0
  9
$DIMCLRT
 70
     0
  9
$DIMTFAC
 40
1.0
  9
$DIMGAP
 40
0.09
  9
$DIMJUST
 70
     0
  9
$DIMSD1
 70
     0
  9
$DIMSD2
 70
     0
  9
$DIMTOLJ
 70
     1
  9
$DIMTZIN
 70
     0
  9
$DIMALTZ
 70
     0
  9
$DIMALTTZ
 70
     0
  9
$DIMUPT
 70
     0
  9
$DIMDEC
 70
     4
  9
$DIMTDEC
 70
     4
  9
$DIMALTU
 70
     2
  9
$DIMALTTD
 70
     2
  9
$DIMTXSTY
  7
STANDARD
  9
$DIMAUNIT
 70
     0
  9
$DIMADEC
 70
     0
  9
$DIMALTRND
 40
0.0
  9
$DIMAZIN
 70
     0
  9
$DIMDSEP
 70
    46
  9
$DIMATFIT
 70
     3
  9
$DIMFRAC
 70
     0
  9
$DIMLDRBLK
  1

  9
$DIMLUNIT
 70
     2
  9
$DIMLWD
 70
    -2
  9
$DIMLWE
 70
    -2
  9
$DIMTMOVE
 70
     0
  9
$LUNITS
 70
     2
  9
$LUPREC
 70
     4
  9
$SKETCHINC
 40
0.1
  9
$FILLETRAD
 40
0.0
  9
$AUNITS
 70
     0
  9
$AUPREC
 70
     0
  9
$MENU
  1
.
  9
$ELEVATION
 40
0.0
  9
$PELEVATION
 40
0.0
  9
$THICKNESS
 40
0.0
  9
$LIMCHECK
 70
     0
  9
$CHAMFERA
 40
0.0
  9
$CHAMFERB
 40
0.0
  9
$CHAMFERC
 40
0.0
  9
$CHAMFERD
 40
0.0
  9
$SKPOLY
 70
     0
  9
$TDCREATE
 40
2452516.682351065
  9
$TDUCREATE
 40
2452516.307351065
  9
$TDUPDATE
 40
2459744.57000382
  9
$TDUUPDATE
 40
2459744.19500382
  9
$TDINDWG
 40
0.0830630556
  9
$TDUSRTIMER
 40
0.0235790162
  9
$USRTIMER
 70
     1
  9
$ANGBASE
 50
0.0
  9
$ANGDIR
 70
     0
  9
$PDMODE
 70
     0
  9
$PDSIZE
 40
0.0
  9
$PLINEWID
 40
0.0
  9
$SPLFRAME
 70
     0
  9
$SPLINETYPE
 70
     6
  9
$SPLINESEGS
 70
     8
  9
$HANDSEED
  5
5EE
  9
$SURFTAB1
 70
     6
  9
$SURFTAB2
 70
     6
  9
$SURFTYPE
 70
     6
  9
$SURFU
 70
     6
  9
$SURFV
 70
     6
  9
$UCSBASE
  2

  9
$UCSNAME
  2

  9
$UCSORG
 10
0.0
 20
0.0
 30
0.0
  9
$UCSXDIR
 10
1.0
 20
0.0
 30
0.0
  9
$UCSYDIR
 10
0.0
 20
1.0
 30
0.0
  9
$UCSORTHOREF
  2

  9
$UCSORTHOVIEW
 70
     0
  9
$UCSORGTOP
 10
0.0
 20
0.0
 30
0.0
  9
$UCSORGBOTTOM
 10
0.0
 20
0.0
 30
0.0
  9
$UCSORGLEFT
 10
0.0
 20
0.0
 30
0.0
  9
$UCSORGRIGHT
 10
0.0
 20
0.0
 30
0.0
  9
$UCSORGFRONT
 10
0.0
 20
0.0
 30
0.0
  9
$UCSORGBACK
 10
0.0
 20
0.0
 30
0.0
  9
$PUCSBASE
  2

  9
$PUCSNAME
  2

  9
$PUCSORG
 10
0.0
 20
0.0
 30
0.0
  9
$PUCSXDIR
 10
1.0
 20
0.0
 30
0.0
  9
$PUCSYDIR
 10
0.0
 20
1.0
 30
0.0
  9
$PUCSORTHOREF
  2

  9
$PUCSORTHOVIEW
 70
     0
  9
$PUCSORGTOP
 10
0.0
 20
0.0
 30
0.0
  9
$PUCSORGBOTTOM
 10
0.0
 20
0.0
 30
0.0
  9
$PUCSORGLEFT
 10
0.0
 20
0.0
 30
0.0
  9
$PUCSORGRIGHT
 10
0.0
 20
0.0
 30
0.0
  9
$PUCSORGFRONT
 10
0.0
 20
0.0
 30
0.0
  9
$PUCSORGBACK
 10
0.0
 20
0.0
 30
0.0
  9
$USERI1
 70
     0
  9
$USERI2
 70
     0
  9
$USERI3
 70
     0
  9
$USERI4
 70
     0
  9
$USERI5
 70
     0
  9
$USERR1
 40
0.0
  9
$USERR2
 40
0.0
  9
$USERR3
 40
0.0
  9
$USERR4
 40
0.0
  9
$USERR5
 40
0.0
  9
$WORLDVIEW
 70
     1
  9
$SHADEDGE
 70
     3
  9
$SHADEDIF
 70
    70
  9
$TILEMODE
 70
     1
  9
$MAXACTVP
 70
    64
  9
$PINSBASE
 10
0.0
 20
0.0
 30
0.0
  9
$PLIMCHECK
 70
     0
  9
$PEXTMIN
 10
1.000000000000000E+20
 20
1.000000000000000E+20
 30
1.000000000000000E+20
  9
$PEXTMAX
 10
-1.000000000000000E+20
 20
-1.000000000000000E+20
 30
-1.000000000000000E+20
  9
$PLIMMIN
 10
0.0
 20
0.0
  9
$PLIMMAX
 10
0.0
 20
0.0
  9
$UNITMODE
 70
     0
  9
$VISRETAIN
 70
     1
  9
$PLINEGEN
 70
     0
  9
$PSLTSCALE
 70
     1
  9
$TREEDEPTH
 70
  3020
  9
$CMLSTYLE
  2
Standard
  9
$CMLJUST
 70
     0
  9
$CMLSCALE
 40
1.0
  9
$PROXYGRAPHICS
 70
     1
  9
$MEASUREMENT
 70
     0
  9
$CELWEIGHT
370
    -1
  9
$ENDCAPS
280
     0
  9
$JOINSTYLE
280
     0
  9
$LWDISPLAY
290
     0
  9
$INSUNITS
 70
     0
  9
$HYPERLINKBASE
  1

  9
$STYLESHEET
  1

  9
$XEDIT
290
     1
  9
$CEPSNTYPE
380
     0
  9
$PSTYLEMODE
290
     1
  9
$FINGERPRINTGUID
  2
{68E9F4DF-F4E9-46FF-A478-215E67004B97}
  9
$VERSIONGUID
  2
{4B232BAC-854F-48B8-8625-664ADFF46CC1}
  9
$EXTNAMES
290
     1
  9
$PSVPSCALE
 40
0.0
  9
$OLESTARTUP
290
     0
  0
ENDSEC
  0
SECTION
  2
CLASSES
  0
CLASS
  1
ACDBDICTIONARYWDFLT
  2
AcDbDictionaryWithDefault
  3
ObjectDBX Classes
 90
        0
280
     0
281
     0
  0
CLASS
  1
ACDBPLACEHOLDER
  2
AcDbPlaceHolder
  3
ObjectDBX Classes
 90
        0
280
     0
281
     0
  0
CLASS
  1
LAYOUT
  2
AcDbLayout
  3
ObjectDBX Classes
 90
        0
280
     0
281
     0
  0
CLASS
  1
MATERIAL
  2
AcDbMaterial
  3
ObjectDBX Classes
 90
     1153
280
     0
281
     0
  0
CLASS
  1
VISUALSTYLE
  2
AcDbVisualStyle
  3
ObjectDBX Classes
 90
     4095
280
     0
281
     0
  0
CLASS
  1
TABLESTYLE
  2
AcDbTableStyle
  3
ObjectDBX Classes
 90
     4095
280
     0
281
     0
  0
CLASS
  1
SCALE
  2
AcDbScale
  3
ObjectDBX Classes
 90
     1153
280
     0
281
     0
  0
CLASS
  1
MLEADERSTYLE
  2
AcDbMLeaderStyle
  3
ACDB_MLEADERSTYLE_CLASS
 90
     4095
280
     0
281
     0
  0
CLASS
  1
CELLSTYLEMAP
  2
AcDbCellStyleMap
  3
ObjectDBX Classes
 90
     1152
280
     0
281
     0
  0
CLASS
  1
DICTIONARYVAR
  2
AcDbDictionaryVar
  3
ObjectDBX Classes
 90
        0
280
     0
281
     0
  0
CLASS
  1
SORTENTSTABLE
  2
AcDbSortentsTable
  3
ObjectDBX Classes
 90
        0
280
     0
281
     0
  0
ENDSEC
  0
SECTION
  2
TABLES
  0
TABLE
  2
VPORT
  5
8
330
0
100
AcDbSymbolTable
 70
     1
  0
VPORT
  5
461
330
8
100
AcDbSymbolTableRecord
100
AcDbViewportTableRecord
  2
*Active
 70
     0
 10
0.0
 20
0.0
 11
1.0
 21
1.0
 12
1829.986658331951
 22
809.1455645094396
 13
0.0
 23
0.0
 14
1.0
 24
1.0
 15
0.0
 25
0.0
 16
0.0
 26
0.0
 36
1.0
 17
0.0
 27
0.0
 37
0.0
 40
681.765765580464
 41
2.082079343365253
 42
50.0
 43
0.0
 44
0.0
 50
0.0
 51
0.0
 71
    16
 72
   100
 73
     1
 74
     1
 75
     0
 76
     0
 77
     0
 78
     0
281
     0
 65
     1
110
0.0
120
0.0
130
0.0
111
1.0
121
0.0
131
0.0
112
0.0
122
1.0
132
0.0
 79
     0
146
0.0
  0
ENDTAB
  0
TABLE
  2
LTYPE
  5
5
330
0
100
AcDbSymbolTable
 70
    25
  0
LTYPE
  5
13
330
5
100
AcDbSymbolTableRecord
100
AcDbLinetypeTableRecord
  2
ByBlock
 70
     0
  3

 72
    65
 73
     0
 40
0.0
  0
LTYPE
  5
14
330
5
100
AcDbSymbolTableRecord
100
AcDbLinetypeTableRecord
  2
ByLayer
 70
     0
  3

 72
    65
 73
     0
 40
0.0
  0
LTYPE
  5
15
330
5
100
AcDbSymbolTableRecord
100
AcDbLinetypeTableRecord
  2
CONTINUOUS
 70
     0
  3
Solid line
 72
    65
 73
     0
 40
0.0
  0
LTYPE
  5
22
330
5
100
AcDbSymbolTableRecord
100
AcDbLinetypeTableRecord
  2
BORDER
 70
     0
  3
__ __ . __ __ . __ __ . __ __ . __ __ . __ __ .
 72
    65
 73
     6
 40
1.75
 49
0.5
 74
     0
 49
-0.25
 74
     0
 49
0.5
 74
     0
 49
-0.25
 74
     0
 49
0.0
 74
     0
 49
-0.25
 74
     0
  0
LTYPE
  5
23
330
5
100
AcDbSymbolTableRecord
100
AcDbLinetypeTableRecord
  2
BORDER2
 70
     0
  3
__.__.__.__.__.__.__.__.__.__.__.__.__.__.__.__
 72
    65
 73
     6
 40
0.875
 49
0.25
 74
     0
 49
-0.125
 74
     0
 49
0.25
 74
     0
 49
-0.125
 74
     0
 49
0.0
 74
     0
 49
-0.125
 74
     0
  0
LTYPE
  5
24
330
5
100
AcDbSymbolTableRecord
100
AcDbLinetypeTableRecord
  2
BORDERX2
 70
     0
  3
____  ____  .  ____  ____  .  ____  ____  .  __
 72
    65
 73
     6
 40
3.5
 49
1.0
 74
     0
 49
-0.5
 74
     0
 49
1.0
 74
     0
 49
-0.5
 74
     0
 49
0.0
 74
     0
 49
-0.5
 74
     0
  0
LTYPE
  5
25
330
5
100
AcDbSymbolTableRecord
100
AcDbLinetypeTableRecord
  2
CENTER
 70
     0
  3
____ _ ____ _ ____ _ ____ _ ____ _ ____ _ ____ 
 72
    65
 73
     4
 40
2.0
 49
1.25
 74
     0
 49
-0.25
 74
     0
 49
0.25
 74
     0
 49
-0.25
 74
     0
  0
LTYPE
  5
26
330
5
100
AcDbSymbolTableRecord
100
AcDbLinetypeTableRecord
  2
CENTER2
 70
     0
  3
___ _ ___ _ ___ _ ___ _ ___ _ ___ _ ___ _ ___ _
 72
    65
 73
     4
 40
1.125
 49
0.75
 74
     0
 49
-0.125
 74
     0
 49
0.125
 74
     0
 49
-0.125
 74
     0
  0
LTYPE
  5
27
330
5
100
AcDbSymbolTableRecord
100
AcDbLinetypeTableRecord
  2
CENTERX2
 70
     0
  3
________  __  ________  __  ________  __  _____
 72
    65
 73
     4
 40
4.0
 49
2.5
 74
     0
 49
-0.5
 74
     0
 49
0.5
 74
     0
 49
-0.5
 74
     0
  0
LTYPE
  5
28
330
5
100
AcDbSymbolTableRecord
100
AcDbLinetypeTableRecord
  2
DASHDOT
 70
     0
  3
__ . __ . __ . __ . __ . __ . __ . __ . __ . __
 72
    65
 73
     4
 40
1.0
 49
0.5
 74
     0
 49
-0.25
 74
     0
 49
0.0
 74
     0
 49
-0.25
 74
     0
  0
LTYPE
  5
29
330
5
100
AcDbSymbolTableRecord
100
AcDbLinetypeTableRecord
  2
DASHDOT2
 70
     0
  3
_._._._._._._._._._._._._._._._._._._._._._._._
 72
    65
 73
     4
 40
0.5
 49
0.25
 74
     0
 49
-0.125
 74
     0
 49
0.0
 74
     0
 49
-0.125
 74
     0
  0
LTYPE
  5
2A
330
5
100
AcDbSymbolTableRecord
100
AcDbLinetypeTableRecord
  2
DASHDOTX2
 70
     0
  3
____  .  ____  .  ____  .  ____  .  ____  .  __
 72
    65
 73
     4
 40
2.0
 49
1.0
 74
     0
 49
-0.5
 74
     0
 49
0.0
 74
     0
 49
-0.5
 74
     0
  0
LTYPE
  5
2B
330
5
100
AcDbSymbolTableRecord
100
AcDbLinetypeTableRecord
  2
DASHED
 70
     0
  3
__ __ __ __ __ __ __ __ __ __ __ __ __ __ __ __
 72
    65
 73
     2
 40
0.75
 49
0.5
 74
     0
 49
-0.25
 74
     0
  0
LTYPE
  5
2C
330
5
100
AcDbSymbolTableRecord
100
AcDbLinetypeTableRecord
  2
DASHED2
 70
     0
  3
_ _ _ _ _ _ _ _ _ _ _ _ _ _ _ _ _ _ _ _ _ _ _ _
 72
    65
 73
     2
 40
0.375
 49
0.25
 74
     0
 49
-0.125
 74
     0
  0
LTYPE
  5
2D
330
5
100
AcDbSymbolTableRecord
100
AcDbLinetypeTableRecord
  2
DASHEDX2
 70
     0
  3
____  ____  ____  ____  ____  ____  ____  ____ 
 72
    65
 73
     2
 40
1.5
 49
1.0
 74
     0
 49
-0.5
 74
     0
  0
LTYPE
  5
2E
330
5
100
AcDbSymbolTableRecord
100
AcDbLinetypeTableRecord
  2
DIVIDE
 70
     0
  3
____ . . ____ . . ____ . . ____ . . ____ . . __
 72
    65
 73
     6
 40
1.25
 49
0.5
 74
     0
 49
-0.25
 74
     0
 49
0.0
 74
     0
 49
-0.25
 74
     0
 49
0.0
 74
     0
 49
-0.25
 74
     0
  0
LTYPE
  5
2F
330
5
100
AcDbSymbolTableRecord
100
AcDbLinetypeTableRecord
  2
DIVIDE2
 70
     0
  3
__..__..__..__..__..__..__..__..__..__..__..__.
 72
    65
 73
     6
 40
0.625
 49
0.25
 74
     0
 49
-0.125
 74
     0
 49
0.0
 74
     0
 49
-0.125
 74
     0
 49
0.0
 74
     0
 49
-0.125
 74
     0
  0
LTYPE
  5
30
330
5
100
AcDbSymbolTableRecord
100
AcDbLinetypeTableRecord
  2
DIVIDEX2
 70
     0
  3
________  .  .  ________  .  .  ________  .  . 
 72
    65
 73
     6
 40
2.5
 49
1.0
 74
     0
 49
-0.5
 74
     0
 49
0.0
 74
     0
 49
-0.5
 74
     0
 49
0.0
 74
     0
 49
-0.5
 74
     0
  0
LTYPE
  5
31
330
5
100
AcDbSymbolTableRecord
100
AcDbLinetypeTableRecord
  2
DOT
 70
     0
  3
. . . . . . . . . . . . . . . . . . . . . . . .
 72
    65
 73
     2
 40
0.25
 49
0.0
 74
     0
 49
-0.25
 74
     0
  0
LTYPE
  5
32
330
5
100
AcDbSymbolTableRecord
100
AcDbLinetypeTableRecord
  2
DOT2
 70
     0
  3
...............................................
 72
    65
 73
     2
 40
0.125
 49
0.0
 74
     0
 49
-0.125
 74
     0
  0
LTYPE
  5
33
330
5
100
AcDbSymbolTableRecord
100
AcDbLinetypeTableRecord
  2
DOTX2
 70
     0
  3
.  .  .  .  .  .  .  .  .  .  .  .  .  .  .  . 
 72
    65
 73
     2
 40
0.5
 49
0.0
 74
     0
 49
-0.5
 74
     0
  0
LTYPE
  5
34
330
5
100
AcDbSymbolTableRecord
100
AcDbLinetypeTableRecord
  2
HIDDEN
 70
     0
  3
__ __ __ __ __ __ __ __ __ __ __ __ __ __ __ __
 72
    65
 73
     2
 40
0.375
 49
0.25
 74
     0
 49
-0.125
 74
     0
  0
LTYPE
  5
35
330
5
100
AcDbSymbolTableRecord
100
AcDbLinetypeTableRecord
  2
HIDDEN2
 70
     0
  3
_ _ _ _ _ _ _ _ _ _ _ _ _ _ _ _ _ _ _ _ _ _ _ _
 72
    65
 73
     2
 40
0.1875
 49
0.125
 74
     0
 49
-0.0625
 74
     0
  0
LTYPE
  5
36
330
5
100
AcDbSymbolTableRecord
100
AcDbLinetypeTableRecord
  2
HIDDENX2
 70
     0
  3
____ ____ ____ ____ ____ ____ ____ ____ ____ __
 72
    65
 73
     2
 40
0.75
 49
0.5
 74
     0
 49
-0.25
 74
     0
  0
LTYPE
  5
37
330
5
100
AcDbSymbolTableRecord
100
AcDbLinetypeTableRecord
  2
PHANTOM
 70
     0
  3
______  __  __  ______  __  __  ______  __  __ 
 72
    65
 73
     6
 40
2.5
 49
1.25
 74
     0
 49
-0.25
 74
     0
 49
0.25
 74
     0
 49
-0.25
 74
     0
 49
0.25
 74
     0
 49
-0.25
 74
     0
  0
LTYPE
  5
38
330
5
100
AcDbSymbolTableRecord
100
AcDbLinetypeTableRecord
  2
PHANTOM2
 70
     0
  3
___ _ _ ___ _ _ ___ _ _ ___ _ _ ___ _ _ ___ _ _
 72
    65
 73
     6
 40
1.25
 49
0.625
 74
     0
 49
-0.125
 74
     0
 49
0.125
 74
     0
 49
-0.125
 74
     0
 49
0.125
 74
     0
 49
-0.125
 74
     0
  0
LTYPE
  5
39
330
5
100
AcDbSymbolTableRecord
100
AcDbLinetypeTableRecord
  2
PHANTOMX2
 70
     0
  3
____________    ____    ____    ____________   
 72
    65
 73
     6
 40
5.0
 49
2.5
 74
     0
 49
-0.5
 74
     0
 49
0.5
 74
     0
 49
-0.5
 74
     0
 49
0.5
 74
     0
 49
-0.5
 74
     0
  0
ENDTAB
  0
TABLE
  2
LAYER
  5
2
102
{ACAD_XDICTIONARY
360
4EA
102
}
330
0
100
AcDbSymbolTable
 70
     8
  0
LAYER
  5
10
102
{ACAD_XDICTIONARY
360
3E1
102
}
330
2
100
AcDbSymbolTableRecord
100
AcDbLayerTableRecord
  2
0
 70
     0
 62
     7
  6
CONTINUOUS
370
    -3
390
F
  0
LAYER
  5
3B
102
{ACAD_XDICTIONARY
360
3E3
102
}
330
2
100
AcDbSymbolTableRecord
100
AcDbLayerTableRecord
  2
破線
 70
     0
 62
     3
  6
CONTINUOUS
370
    -3
390
F
  0
LAYER
  5
3D
102
{ACAD_XDICTIONARY
360
3E5
102
}
330
2
100
AcDbSymbolTableRecord
100
AcDbLayerTableRecord
  2
仕様
 70
     0
 62
     7
  6
CONTINUOUS
370
    -3
390
F
  0
LAYER
  5
282
102
{ACAD_XDICTIONARY
360
3E7
102
}
330
2
100
AcDbSymbolTableRecord
100
AcDbLayerTableRecord
  2
ﾚｲﾔ1
 70
     0
 62
     7
  6
CONTINUOUS
370
    -3
390
F
  0
LAYER
  5
283
102
{ACAD_XDICTIONARY
360
3E9
102
}
330
2
100
AcDbSymbolTableRecord
100
AcDbLayerTableRecord
  2
図面枠
 70
     0
 62
     5
  6
CONTINUOUS
370
    -3
390
F
  0
LAYER
  5
416
330
2
100
AcDbSymbolTableRecord
100
AcDbLayerTableRecord
  2
Defpoints
 70
     0
 62
     7
  6
CONTINUOUS
290
     0
370
    -3
390
F
  0
LAYER
  5
47F
102
{ACAD_XDICTIONARY
360
480
102
}
330
2
100
AcDbSymbolTableRecord
100
AcDbLayerTableRecord
  2
下図
 70
     0
 62
     8
  6
DASHDOT
290
     0
370
    -3
390
F
  0
LAYER
  5
5CA
330
2
100
AcDbSymbolTableRecord
100
AcDbLayerTableRecord
  2
寸法
 70
     0
 62
     1
  6
CONTINUOUS
370
    -3
390
F
  0
ENDTAB
  0
TABLE
  2
STYLE
  5
3
330
0
100
AcDbSymbolTable
 70
     4
  0
STYLE
  5
11
330
3
100
AcDbSymbolTableRecord
100
AcDbTextStyleTableRecord
  2
STANDARD
 70
     0
 40
0.0
 41
1.0
 50
0.0
 71
     0
 42
0.2
  3
TXT
  4
BIGFONT
  0
STYLE
  5
3A
330
3
100
AcDbSymbolTableRecord
100
AcDbTextStyleTableRecord
  2
STANDARD1
 70
     4
 40
0.0
 41
1.0
 50
0.0
 71
     0
 42
0.2
  3
TXT
  4
BIGFONT
  0
STYLE
  5
486
330
3
100
AcDbSymbolTableRecord
100
AcDbTextStyleTableRecord
  2
DIMFONT1
 70
     0
 40
0.0
 41
1.193548387096774
 50
0.0
 71
     0
 42
0.2
  3
msgothic.ttc
  4

1001
ACAD
1000
MS PGothic
1071
    32818
  0
STYLE
  5
489
330
3
100
AcDbSymbolTableRecord
100
AcDbTextStyleTableRecord
  2
TextStyle01
 70
     0
 40
0.0
 41
1.0
 50
0.0
 71
     0
 42
0.2
  3
TXT
  4
BIGFONT
  0
ENDTAB
  0
TABLE
  2
VIEW
  5
6
330
0
100
AcDbSymbolTable
 70
     0
  0
ENDTAB
  0
TABLE
  2
UCS
  5
7
330
0
100
AcDbSymbolTable
 70
     0
  0
ENDTAB
  0
TABLE
  2
APPID
  5
9
330
0
100
AcDbSymbolTable
 70
     4
  0
APPID
  5
12
330
9
100
AcDbSymbolTableRecord
100
AcDbRegAppTableRecord
  2
ACAD
 70
     0
  0
APPID
  5
3DD
330
9
100
AcDbSymbolTableRecord
100
AcDbRegAppTableRecord
  2
ACAD_MLEADERVER
 70
     0
  0
APPID
  5
488
330
9
100
AcDbSymbolTableRecord
100
AcDbRegAppTableRecord
  2
ACAD_NAV_VCDISPLAY
 70
     0
  0
APPID
  5
5A2
330
9
100
AcDbSymbolTableRecord
100
AcDbRegAppTableRecord
  2
PLOTTRANSPARENCY
 70
     0
  0
ENDTAB
  0
TABLE
  2
DIMSTYLE
  5
A
330
0
100
AcDbSymbolTable
 70
     3
100
AcDbDimStyleTable
  0
DIMSTYLE
105
273
330
A
100
AcDbSymbolTableRecord
100
AcDbDimStyleTableRecord
  2
Standard
 70
     0
178
     0
340
11
  0
DIMSTYLE
105
485
330
A
100
AcDbSymbolTableRecord
100
AcDbDimStyleTableRecord
  2
DIM001
 70
     0
 40
10.0
 41
1.0
 42
0.0
 44
1.0
 45
1.0
 73
     0
 74
     0
 77
     3
140
1.216216216216216
147
0.2
172
     1
176
     7
177
     7
271
     0
178
     7
271
     0
273
     6
340
486
  0
DIMSTYLE
105
487
330
A
100
AcDbSymbolTableRecord
100
AcDbDimStyleTableRecord
  2
DIM002
 70
     0
 40
10.0
 41
1.0
 42
0.0
 44
0.0
 45
1.0
 73
     0
 74
     0
 77
     3
140
1.216216216216216
147
0.2
172
     1
176
     7
177
     7
271
     0
178
     7
271
     0
273
     6
340
486
  0
ENDTAB
  0
TABLE
  2
BLOCK_RECORD
  5
1
330
0
100
AcDbSymbolTable
 70
     2
  0
BLOCK_RECORD
  5
1E
102
{ACAD_XDICTIONARY
360
5A3
102
}
330
1
100
AcDbSymbolTableRecord
100
AcDbBlockTableRecord
  2
*Model_Space
340
21
  0
BLOCK_RECORD
  5
1A
330
1
100
AcDbSymbolTableRecord
100
AcDbBlockTableRecord
  2
*Paper_Space
340
1D
  0
BLOCK_RECORD
  5
417
330
1
100
AcDbSymbolTableRecord
100
AcDbBlockTableRecord
  2
*D0
340
0
  0
BLOCK_RECORD
  5
4E4
330
1
100
AcDbSymbolTableRecord
100
AcDbBlockTableRecord
  2
_Open30
340
0
  0
ENDTAB
  0
ENDSEC
  0
SECTION
  2
BLOCKS
  0
BLOCK
  5
1F
330
1E
100
AcDbEntity
  8
0
100
AcDbBlockBegin
  2
*Model_Space
 70
     0
 10
0.0
 20
0.0
 30
0.0
  3
*Model_Space
  1

  0
ENDBLK
  5
20
330
1E
100
AcDbEntity
  8
0
100
AcDbBlockEnd
  0
BLOCK
  5
1B
330
1A
100
AcDbEntity
 67
     1
  8
0
100
AcDbBlockBegin
  2
*Paper_Space
 70
     0
 10
0.0
 20
0.0
 30
0.0
  3
*Paper_Space
  1

  0
ENDBLK
  5
1C
330
1A
100
AcDbEntity
 67
     1
  8
0
100
AcDbBlockEnd
  0
BLOCK
  5
422
330
417
100
AcDbEntity
  8
0
 62
     8
100
AcDbBlockBegin
  2
*D0
 70
     1
 10
0.0
 20
0.0
 30
0.0
  3
*D0
  1

  0
LINE
  5
456
330
417
100
AcDbEntity
  8
ﾚｲﾔ1
  6
Continuous
 62
     0
370
    -2
100
AcDbLine
 10
179.5261915404341
 20
819.653487287676
 30
0.0
 11
179.5261915404341
 21
880.8586998491943
 31
0.0
  0
LINE
  5
457
330
417
100
AcDbEntity
  8
ﾚｲﾔ1
  6
Continuous
 62
     0
370
    -2
100
AcDbLine
 10
265.5261915404341
 20
819.653487287676
 30
0.0
 11
265.5261915404341
 21
880.8586998491943
 31
0.0
  0
LINE
  5
458
330
417
100
AcDbEntity
  8
ﾚｲﾔ1
  6
Continuous
 62
     0
370
    -2
100
AcDbLine
 10
189.5261915404341
 20
880.6786998491943
 30
0.0
 11
194.8595248737674
 21
880.6786998491943
 31
0.0
  0
LINE
  5
459
330
417
100
AcDbEntity
  8
ﾚｲﾔ1
  6
Continuous
 62
     0
370
    -2
100
AcDbLine
 10
255.5261915404341
 20
880.6786998491943
 30
0.0
 11
250.1928582071008
 21
880.6786998491943
 31
0.0
  0
SOLID
  5
45A
330
417
100
AcDbEntity
  8
ﾚｲﾔ1
  6
Continuous
 62
     0
100
AcDbTrace
 10
189.5261915404341
 20
882.3453665158609
 30
0.0
 11
189.5261915404341
 21
879.0120331825276
 31
0.0
 12
179.5261915404341
 22
880.6786998491943
 32
0.0
 13
179.5261915404341
 23
880.6786998491943
 33
0.0
  0
SOLID
  5
45B
330
417
100
AcDbEntity
  8
ﾚｲﾔ1
  6
Continuous
 62
     0
100
AcDbTrace
 10
255.5261915404341
 20
882.3453665158609
 30
0.0
 11
255.5261915404341
 21
879.0120331825276
 31
0.0
 12
265.5261915404341
 22
880.6786998491943
 32
0.0
 13
265.5261915404341
 23
880.6786998491943
 33
0.0
  0
MTEXT
  5
45C
330
417
100
AcDbEntity
  8
ﾚｲﾔ1
  6
Continuous
 62
     0
100
AcDbMText
 10
222.5261915404341
 20
880.6786998491943
 30
0.0
 40
10.0
 41
0.0
 71
     5
 72
     1
  1
\A1;86.0000
 73
     1
 44
1.0
  0
POINT
  5
45D
330
417
100
AcDbEntity
  8
Defpoints
  6
Continuous
 62
     0
100
AcDbPoint
 10
179.5261915404341
 20
819.5909872876761
 30
0.0
  0
POINT
  5
45E
330
417
100
AcDbEntity
  8
Defpoints
  6
Continuous
 62
     0
100
AcDbPoint
 10
265.5261915404341
 20
819.5909872876761
 30
0.0
  0
POINT
  5
45F
330
417
100
AcDbEntity
  8
Defpoints
  6
Continuous
 62
     0
100
AcDbPoint
 10
265.5261915404341
 20
880.6786998491943
 30
0.0
  0
ENDBLK
  5
423
330
417
100
AcDbEntity
  8
0
 62
     8
100
AcDbBlockEnd
  0
BLOCK
  5
4E5
330
4E4
100
AcDbEntity
  8
0
100
AcDbBlockBegin
  2
_Open30
 70
     0
 10
0.0
 20
0.0
 30
0.0
  3
_Open30
  1

  0
LINE
  5
4E6
330
4E4
100
AcDbEntity
  8
下図
 62
     0
370
    -2
100
AcDbLine
 10
-1.0
 20
0.26794919
 30
0.0
 11
0.0
 21
0.0
 31
0.0
  0
LINE
  5
4E7
330
4E4
100
AcDbEntity
  8
下図
 62
     0
370
    -2
100
AcDbLine
 10
0.0
 20
0.0
 30
0.0
 11
-1.0
 21
-0.26794919
 31
0.0
  0
LINE
  5
4E8
330
4E4
100
AcDbEntity
  8
下図
 62
     0
370
    -2
100
AcDbLine
 10
0.0
 20
0.0
 30
0.0
 11
-1.0
 21
0.0
 31
0.0
  0
ENDBLK
  5
4E9
330
4E4
100
AcDbEntity
  8
0
100
AcDbBlockEnd
  0
ENDSEC
  0
SECTION
  2
ENTITIES
  0
LINE
  5
78
330
1E
100
AcDbEntity
  8
ﾚｲﾔ1
  6
Continuous
 62
     7
100
AcDbLine
 10
1547.907790442007
 20
834.5080078973377
 30
0.0
 11
1547.907790442007
 21
835.4380078973378
 31
0.0
  0
LINE
  5
79
330
1E
100
AcDbEntity
  8
ﾚｲﾔ1
  6
Continuous
 62
     7
100
AcDbLine
 10
1491.907790442007
 20
832.9380078973378
 30
0.0
 11
1491.907790442007
 21
833.458007897338
 31
0.0
  0
LINE
  5
7A
330
1E
100
AcDbEntity
  8
ﾚｲﾔ1
  6
Continuous
 62
     7
100
AcDbLine
 10
1543.826790442007
 20
834.5080078973377
 30
0.0
 11
1547.907790442007
 21
834.5080078973377
 31
0.0
  0
LWPOLYLINE
  5
7B
330
1E
100
AcDbEntity
  8
ﾚｲﾔ1
  6
Continuous
 62
     7
100
AcDbPolyline
 90
        3
 70
     0
 43
0.0
 10
1491.907790442007
 20
833.458007897338
 10
1492.957790442007
 20
834.5080078973377
 10
1543.826790442007
 20
834.5080078973377
  0
LWPOLYLINE
  5
80
330
1E
100
AcDbEntity
  8
破線
  6
Continuous
 62
     3
100
AcDbPolyline
 90
        3
 70
     0
 43
0.0
 10
1491.907790442007
 20
833.458007897338
 10
1539.907790442007
 20
833.458007897338
 10
1539.907790442007
 20
834.5080078973377
  0
LINE
  5
85
330
1E
100
AcDbEntity
  8
破線
  6
Continuous
 62
     3
100
AcDbLine
 10
1539.907790442007
 20
833.458007897338
 30
0.0
 11
1543.826790442007
 21
834.5080078973377
 31
0.0
  0
LINE
  5
86
330
1E
100
AcDbEntity
  8
ﾚｲﾔ1
  6
Continuous
 62
     7
100
AcDbLine
 10
1489.907790442007
 20
831.9380078973378
 30
0.0
 11
1490.907790442007
 21
832.9380078973378
 31
0.0
  0
LINE
  5
87
330
1E
100
AcDbEntity
  8
ﾚｲﾔ1
  6
Continuous
 62
     7
100
AcDbLine
 10
1490.907790442007
 20
832.9380078973378
 30
0.0
 11
1491.907790442007
 21
832.9380078973378
 31
0.0
  0
LINE
  5
88
330
1E
100
AcDbEntity
  8
ﾚｲﾔ1
  6
Continuous
 62
     7
100
AcDbLine
 10
1460.907790442007
 20
819.8420078973378
 30
0.0
 11
1462.731790442007
 21
821.6660078973379
 31
0.0
  0
ARC
  5
89
330
1E
100
AcDbEntity
  8
ﾚｲﾔ1
  6
Continuous
 62
     7
100
AcDbCircle
 10
1469.141790442007
 20
820.0990078973379
 30
0.0
 40
1.76702
100
AcDbArc
 50
1.79000999999196
 51
91.78999999999648
  0
ARC
  5
8A
330
1E
100
AcDbEntity
  8
ﾚｲﾔ1
  6
Continuous
 62
     7
100
AcDbCircle
 10
1462.673790442007
 20
819.8970078973381
 30
0.0
 40
1.76702
100
AcDbArc
 50
91.78929999999589
 51
181.7900000000041
  0
LINE
  5
8B
330
1E
100
AcDbEntity
  8
破線
  6
Continuous
 62
     3
100
AcDbLine
 10
1460.907790442007
 20
819.8420078973378
 30
0.0
 11
1470.907790442007
 21
820.1540078973379
 31
0.0
  0
LINE
  5
8C
330
1E
100
AcDbEntity
  8
ﾚｲﾔ1
  6
Continuous
 62
     7
100
AcDbLine
 10
1485.907790442007
 20
822.390007897338
 30
0.0
 11
1484.083790442007
 21
820.566007897338
 31
0.0
  0
LINE
  5
8D
330
1E
100
AcDbEntity
  8
ﾚｲﾔ1
  6
Continuous
 62
     7
100
AcDbLine
 10
1470.907790442007
 20
820.1540078973379
 30
0.0
 11
1484.083790442007
 21
820.566007897338
 31
0.0
  0
LINE
  5
8E
330
1E
100
AcDbEntity
  8
ﾚｲﾔ1
  6
Continuous
 62
     7
100
AcDbLine
 10
1485.907790442007
 20
827.9380078973378
 30
0.0
 11
1485.907790442007
 21
822.390007897338
 31
0.0
  0
LINE
  5
8F
330
1E
100
AcDbEntity
  8
ﾚｲﾔ1
  6
Continuous
 62
     7
100
AcDbLine
 10
1450.907790442007
 20
827.9380078973378
 30
0.0
 11
1452.907790442007
 21
829.9380078973378
 31
0.0
  0
ARC
  5
90
330
1E
100
AcDbEntity
  8
ﾚｲﾔ1
  6
Continuous
 62
     7
100
AcDbCircle
 10
1450.906790442007
 20
817.4380078973378
 30
0.0
 40
1.5
100
AcDbArc
 50
270.0279999999981
 51
89.97200000000183
  0
ARC
  5
91
330
1E
100
AcDbEntity
  8
ﾚｲﾔ1
  6
Continuous
 62
     7
100
AcDbCircle
 10
1450.906790442007
 20
804.9380078973378
 30
0.0
 40
1.5
100
AcDbArc
 50
270.0279999999981
 51
89.97200000000183
  0
LINE
  5
92
330
1E
100
AcDbEntity
  8
ﾚｲﾔ1
  6
Continuous
 62
     7
100
AcDbLine
 10
1491.907790442007
 20
751.9380078973378
 30
0.0
 11
1491.907790442007
 21
751.4180078973378
 31
0.0
  0
LWPOLYLINE
  5
93
330
1E
100
AcDbEntity
  8
ﾚｲﾔ1
  6
Continuous
 62
     7
100
AcDbPolyline
 90
        3
 70
     0
 43
0.0
 10
1491.907790442007
 20
751.4180078973378
 10
1492.957790442007
 20
750.3680078973381
 10
1543.826790442007
 20
750.3680078973381
  0
LWPOLYLINE
  5
98
330
1E
100
AcDbEntity
  8
破線
  6
Continuous
 62
     3
100
AcDbPolyline
 90
        3
 70
     0
 43
0.0
 10
1491.907790442007
 20
751.4180078973378
 10
1539.907790442007
 20
751.4180078973378
 10
1539.907790442007
 20
750.3680078973381
  0
LINE
  5
9D
330
1E
100
AcDbEntity
  8
ﾚｲﾔ1
  6
Continuous
 62
     7
100
AcDbLine
 10
1489.907790442007
 20
752.9380078973378
 30
0.0
 11
1490.907790442007
 21
751.9380078973378
 31
0.0
  0
LINE
  5
9E
330
1E
100
AcDbEntity
  8
ﾚｲﾔ1
  6
Continuous
 62
     7
100
AcDbLine
 10
1490.907790442007
 20
751.9380078973378
 30
0.0
 11
1491.907790442007
 21
751.9380078973378
 31
0.0
  0
LINE
  5
9F
330
1E
100
AcDbEntity
  8
ﾚｲﾔ1
  6
Continuous
 62
     7
100
AcDbLine
 10
1450.907790442007
 20
756.9380078973378
 30
0.0
 11
1452.907790442007
 21
754.9380078973378
 31
0.0
  0
LINE
  5
A0
330
1E
100
AcDbEntity
  8
破線
  6
Continuous
 62
     3
100
AcDbLine
 10
1539.907790442007
 20
751.4180078973378
 30
0.0
 11
1543.826790442007
 21
750.3680078973381
 31
0.0
  0
LINE
  5
A1
330
1E
100
AcDbEntity
  8
ﾚｲﾔ1
  6
Continuous
 62
     7
100
AcDbLine
 10
1543.826790442007
 20
750.3680078973381
 30
0.0
 11
1547.907790442007
 21
750.3680078973381
 31
0.0
  0
LINE
  5
A2
330
1E
100
AcDbEntity
  8
ﾚｲﾔ1
  6
Continuous
 62
     7
100
AcDbLine
 10
1452.907790442007
 20
754.9380078973378
 30
0.0
 11
1452.907790442007
 21
792.4380078973378
 31
0.0
  0
LINE
  5
A3
330
1E
100
AcDbEntity
  8
ﾚｲﾔ1
  6
Continuous
 62
     7
100
AcDbLine
 10
1485.907790442007
 20
756.9380078973378
 30
0.0
 11
1485.907790442007
 21
792.4380078973378
 31
0.0
  0
LWPOLYLINE
  5
A4
330
1E
100
AcDbEntity
  8
ﾚｲﾔ1
  6
Continuous
 62
     7
100
AcDbPolyline
 90
       14
 70
     0
 43
0.0
 10
1470.907790442007
 20
780.0800078973379
 10
1469.660790442007
 20
780.0300078973377
 10
1468.433790442007
 20
779.8810078973378
 10
1467.244790442007
 20
779.6360078973381
 10
1466.113790442007
 20
779.2970078973382
 10
1465.056790442007
 20
778.8710078973378
 10
1464.091790442007
 20
778.3650078973379
 10
1463.232790442007
 20
777.785007897338
 10
1462.492790442007
 20
777.1410078973378
 10
1461.884790442007
 20
776.4440078973379
 10
1461.417790442007
 20
775.7030078973381
 10
1461.098790442007
 20
774.931007897338
 10
1460.932790442007
 20
774.140007897338
 10
1460.907790442007
 20
773.6880078973378
  0
LWPOLYLINE
  5
B4
330
1E
100
AcDbEntity
  8
ﾚｲﾔ1
  6
Continuous
 62
     7
100
AcDbPolyline
 90
       14
 70
     0
 43
0.0
 10
1460.907790442007
 20
773.6880078973378
 10
1460.985790442007
 20
772.9730078973381
 10
1461.218790442007
 20
772.2700078973379
 10
1461.602790442007
 20
771.5880078973379
 10
1462.131790442007
 20
770.9400078973382
 10
1462.797790442007
 20
770.334007897338
 10
1463.590790442007
 20
769.7800078973379
 10
1464.497790442007
 20
769.2880078973379
 10
1465.504790442007
 20
768.8640078973382
 10
1466.595790442007
 20
768.5160078973378
 10
1467.754790442007
 20
768.2480078973382
 10
1468.961790442007
 20
768.0650078973382
 10
1470.200790442007
 20
767.9700078973377
 10
1470.907790442007
 20
767.9550078973381
  0
LWPOLYLINE
  5
C4
330
1E
100
AcDbEntity
  8
ﾚｲﾔ1
  6
Continuous
 62
     7
100
AcDbPolyline
 90
       13
 70
     0
 43
0.0
 10
1470.907790442007
 20
755.5970078973379
 10
1469.658790442007
 20
755.5920078973378
 10
1468.428790442007
 20
755.5770078973379
 10
1467.236790442007
 20
755.5510078973381
 10
1466.102790442007
 20
755.5160078973378
 10
1465.043790442007
 20
755.4730078973381
 10
1464.076790442007
 20
755.4200078973378
 10
1463.215790442007
 20
755.3600078973378
 10
1462.474790442007
 20
755.294007897338
 10
1461.865790442007
 20
755.2220078973379
 10
1461.397790442007
 20
755.1460078973379
 10
1461.077790442007
 20
755.066007897338
 10
1460.932790442007
 20
755.0020078973381
  0
LINE
  5
D3
330
1E
100
AcDbEntity
  8
ﾚｲﾔ1
  6
Continuous
 62
     7
100
AcDbLine
 10
1470.907790442007
 20
755.5970078973379
 30
0.0
 11
1484.566790442007
 21
755.5970078973379
 31
0.0
  0
LINE
  5
D4
330
1E
100
AcDbEntity
  8
ﾚｲﾔ1
  6
Continuous
 62
     7
100
AcDbLine
 10
1452.907790442007
 20
754.9380078973378
 30
0.0
 11
1460.907790442007
 21
754.9380078973378
 31
0.0
  0
LINE
  5
D5
330
1E
100
AcDbEntity
  8
ﾚｲﾔ1
  6
Continuous
 62
     7
100
AcDbLine
 10
1484.566790442007
 20
755.5970078973379
 30
0.0
 11
1485.907790442007
 21
756.9380078973378
 31
0.0
  0
LWPOLYLINE
  5
D6
330
1E
100
AcDbEntity
  8
ﾚｲﾔ1
  6
Continuous
 62
     7
100
AcDbPolyline
 90
       13
 70
     0
 43
0.0
 10
1460.932790442007
 20
829.874007897338
 10
1461.131790442007
 20
829.7930078973378
 10
1461.482790442007
 20
829.7140078973379
 10
1461.980790442007
 20
829.6380078973381
 10
1462.618790442007
 20
829.5680078973379
 10
1463.384790442007
 20
829.5020078973381
 10
1464.269790442007
 20
829.4440078973381
 10
1465.256790442007
 20
829.3940078973377
 10
1466.333790442007
 20
829.352007897338
 10
1467.480790442007
 20
829.3190078973381
 10
1468.681790442007
 20
829.2950078973382
 10
1469.916790442007
 20
829.2820078973378
 10
1470.907790442007
 20
829.2790078973381
  0
LINE
  5
E5
330
1E
100
AcDbEntity
  8
ﾚｲﾔ1
  6
Continuous
 62
     7
100
AcDbLine
 10
1470.907790442007
 20
829.2790078973381
 30
0.0
 11
1484.566790442007
 21
829.2790078973381
 31
0.0
  0
LINE
  5
E6
330
1E
100
AcDbEntity
  8
ﾚｲﾔ1
  6
Continuous
 62
     7
100
AcDbLine
 10
1470.907790442007
 20
780.0800078973379
 30
0.0
 11
1485.907790442007
 21
780.0800078973379
 31
0.0
  0
LINE
  5
E7
330
1E
100
AcDbEntity
  8
ﾚｲﾔ1
  6
Continuous
 62
     7
100
AcDbLine
 10
1470.907790442007
 20
767.9550078973381
 30
0.0
 11
1485.907790442007
 21
767.9550078973381
 31
0.0
  0
LINE
  5
E8
330
1E
100
AcDbEntity
  8
ﾚｲﾔ1
  6
Continuous
 62
     7
100
AcDbLine
 10
1483.907790442007
 20
755.5970078973379
 30
0.0
 11
1483.907790442007
 21
767.9550078973381
 31
0.0
  0
LINE
  5
E9
330
1E
100
AcDbEntity
  8
ﾚｲﾔ1
  6
Continuous
 62
     7
100
AcDbLine
 10
1483.907790442007
 20
780.0800078973379
 30
0.0
 11
1483.907790442007
 21
792.4380078973378
 31
0.0
  0
LINE
  5
EA
330
1E
100
AcDbEntity
  8
ﾚｲﾔ1
  6
Continuous
 62
     7
100
AcDbLine
 10
1452.907790442007
 20
829.9380078973378
 30
0.0
 11
1460.849790442007
 21
829.9380078973378
 31
0.0
  0
LINE
  5
EB
330
1E
100
AcDbEntity
  8
ﾚｲﾔ1
  6
Continuous
 62
     7
100
AcDbLine
 10
1484.566790442007
 20
829.2790078973381
 30
0.0
 11
1485.907790442007
 21
827.9380078973378
 31
0.0
  0
LINE
  5
EC
330
1E
100
AcDbEntity
  8
ﾚｲﾔ1
  6
Continuous
 62
     7
100
AcDbLine
 10
1485.907790442007
 20
825.9380078973378
 30
0.0
 11
1470.907790442007
 21
825.9380078973378
 31
0.0
  0
LWPOLYLINE
  5
ED
330
1E
100
AcDbEntity
  8
ﾚｲﾔ1
  6
Continuous
 62
     7
100
AcDbPolyline
 90
       14
 70
     0
 43
0.0
 10
1460.907790442007
 20
829.9380078973378
 10
1460.985790442007
 20
829.439007897338
 10
1461.218790442007
 20
828.948007897338
 10
1461.602790442007
 20
828.4730078973381
 10
1462.131790442007
 20
828.0200078973379
 10
1462.797790442007
 20
827.5980078973379
 10
1463.590790442007
 20
827.2110078973377
 10
1464.497790442007
 20
826.8680078973381
 10
1465.504790442007
 20
826.5720078973378
 10
1466.595790442007
 20
826.3290078973379
 10
1467.754790442007
 20
826.1420078973377
 10
1468.961790442007
 20
826.0140078973378
 10
1470.200790442007
 20
825.948007897338
 10
1470.907790442007
 20
825.9380078973378
  0
LINE
  5
FD
330
1E
100
AcDbEntity
  8
ﾚｲﾔ1
  6
DASHDOT
 62
     1
100
AcDbLine
 10
1547.907790442007
 20
838.4380078973378
 30
0.0
 11
1507.907790442007
 21
838.4380078973378
 31
0.0
  0
LINE
  5
FE
330
1E
100
AcDbEntity
  8
ﾚｲﾔ1
  6
DASHDOT
 62
     1
100
AcDbLine
 10
1507.907790442007
 20
838.4380078973378
 30
0.0
 11
1507.907790442007
 21
837.9380078973378
 31
0.0
  0
LINE
  5
FF
330
1E
100
AcDbEntity
  8
ﾚｲﾔ1
  6
DASHDOT
 62
     1
100
AcDbLine
 10
1547.907790442007
 20
838.4380078973378
 30
0.0
 11
1547.907790442007
 21
835.4380078973378
 31
0.0
  0
ARC
  5
100
330
1E
100
AcDbEntity
  8
ﾚｲﾔ1
  6
DASHDOT
 62
     1
100
AcDbCircle
 10
1493.907790442007
 20
836.9380078973378
 30
0.0
 40
1.0
100
AcDbArc
 50
90.00089999999943
 51
180.0019999999932
  0
LINE
  5
101
330
1E
100
AcDbEntity
  8
ﾚｲﾔ1
  6
DASHDOT
 62
     1
100
AcDbLine
 10
1492.907790442007
 20
836.9380078973378
 30
0.0
 11
1492.907790442007
 21
833.458007897338
 31
0.0
  0
LINE
  5
102
330
1E
100
AcDbEntity
  8
ﾚｲﾔ1
  6
DASHDOT
 62
     1
100
AcDbLine
 10
1507.907790442007
 20
837.9380078973378
 30
0.0
 11
1493.907790442007
 21
837.9380078973378
 31
0.0
  0
LINE
  5
103
330
1E
100
AcDbEntity
  8
ﾚｲﾔ1
  6
DASHDOT
 62
     1
100
AcDbLine
 10
1547.907790442007
 20
746.4380078973378
 30
0.0
 11
1507.907790442007
 21
746.4380078973378
 31
0.0
  0
LINE
  5
104
330
1E
100
AcDbEntity
  8
ﾚｲﾔ1
  6
DASHDOT
 62
     1
100
AcDbLine
 10
1507.907790442007
 20
746.4380078973378
 30
0.0
 11
1507.907790442007
 21
746.9380078973378
 31
0.0
  0
LINE
  5
105
330
1E
100
AcDbEntity
  8
ﾚｲﾔ1
  6
DASHDOT
 62
     1
100
AcDbLine
 10
1547.907790442007
 20
746.4380078973378
 30
0.0
 11
1547.907790442007
 21
749.4380078973378
 31
0.0
  0
ARC
  5
106
330
1E
100
AcDbEntity
  8
ﾚｲﾔ1
  6
DASHDOT
 62
     1
100
AcDbCircle
 10
1493.907790442007
 20
747.9380078973378
 30
0.0
 40
1.0
100
AcDbArc
 50
180.0
 51
269.9990000000035
  0
LINE
  5
107
330
1E
100
AcDbEntity
  8
ﾚｲﾔ1
  6
DASHDOT
 62
     1
100
AcDbLine
 10
1492.907790442007
 20
747.9380078973378
 30
0.0
 11
1492.907790442007
 21
751.4180078973378
 31
0.0
  0
LINE
  5
108
330
1E
100
AcDbEntity
  8
ﾚｲﾔ1
  6
DASHDOT
 62
     1
100
AcDbLine
 10
1507.907790442007
 20
746.9380078973378
 30
0.0
 11
1493.907790442007
 21
746.9380078973378
 31
0.0
  0
LWPOLYLINE
  5
109
330
1E
100
AcDbEntity
  8
ﾚｲﾔ1
  6
Continuous
 62
     7
100
AcDbPolyline
 90
        4
 70
     0
 43
0.0
 10
1489.907790442007
 20
812.4380078973378
 10
1488.907790442007
 20
811.4380078973378
 10
1461.907790442007
 20
811.4380078973378
 10
1460.907790442007
 20
812.4380078973378
  0
LINE
  5
10F
330
1E
100
AcDbEntity
  8
破線
  6
Continuous
 62
     3
100
AcDbLine
 10
1461.907790442007
 20
812.4380078973378
 30
0.0
 11
1460.907790442007
 21
812.4380078973378
 31
0.0
  0
LINE
  5
110
330
1E
100
AcDbEntity
  8
破線
  6
Continuous
 62
     3
100
AcDbLine
 10
1460.907790442007
 20
811.4380078973378
 30
0.0
 11
1461.907790442007
 21
811.4380078973378
 31
0.0
  0
LINE
  5
111
330
1E
100
AcDbEntity
  8
ﾚｲﾔ1
  6
Continuous
 62
     7
100
AcDbLine
 10
1462.731790442007
 20
821.6660078973379
 30
0.0
 11
1487.408790442007
 21
822.4370078973378
 31
0.0
  0
LINE
  5
112
330
1E
100
AcDbEntity
  8
ﾚｲﾔ1
  6
Continuous
 62
     7
100
AcDbLine
 10
1488.907790442007
 20
820.9380078973378
 30
0.0
 11
1487.408790442007
 21
822.4370078973378
 31
0.0
  0
LINE
  5
113
330
1E
100
AcDbEntity
  8
破線
  6
Continuous
 62
     3
100
AcDbLine
 10
1484.083790442007
 20
820.566007897338
 30
0.0
 11
1488.907790442007
 21
820.9380078973378
 31
0.0
  0
LINE
  5
114
330
1E
100
AcDbEntity
  8
ﾚｲﾔ1
  6
Continuous
 62
     7
100
AcDbLine
 10
1488.907790442007
 20
763.9380078973378
 30
0.0
 11
1487.408790442007
 21
762.439007897338
 31
0.0
  0
LINE
  5
115
330
1E
100
AcDbEntity
  8
ﾚｲﾔ1
  6
Continuous
 62
     7
100
AcDbLine
 10
1488.907790442007
 20
763.9380078973378
 30
0.0
 11
1488.907790442007
 21
792.4380078973378
 31
0.0
  0
LINE
  5
116
330
1E
100
AcDbEntity
  8
ﾚｲﾔ1
  6
Continuous
 62
     7
100
AcDbLine
 10
1487.408790442007
 20
762.439007897338
 30
0.0
 11
1487.408790442007
 21
792.4380078973378
 31
0.0
  0
LINE
  5
117
330
1E
100
AcDbEntity
  8
ﾚｲﾔ1
  6
Continuous
 62
     7
100
AcDbLine
 10
1485.907790442007
 20
762.486007897338
 30
0.0
 11
1487.408790442007
 21
762.439007897338
 31
0.0
  0
LINE
  5
118
330
1E
100
AcDbEntity
  8
破線
  6
Continuous
 62
     3
100
AcDbLine
 10
1485.907790442007
 20
764.169007897338
 30
0.0
 11
1488.907790442007
 21
763.9380078973378
 31
0.0
  0
LINE
  5
119
330
1E
100
AcDbEntity
  8
ﾚｲﾔ1
  6
Continuous
 62
     7
100
AcDbLine
 10
1489.907790442007
 20
763.9380078973378
 30
0.0
 11
1488.907790442007
 21
763.9380078973378
 31
0.0
  0
LINE
  5
11A
330
1E
100
AcDbEntity
  8
ﾚｲﾔ1
  6
Continuous
 62
     7
100
AcDbLine
 10
1460.907790442007
 20
811.4380078973378
 30
0.0
 11
1461.907790442007
 21
812.4380078973378
 31
0.0
  0
LINE
  5
11B
330
1E
100
AcDbEntity
  8
ﾚｲﾔ1
  6
DASHDOT
 62
     1
100
AcDbLine
 10
1473.907790442007
 20
811.9380078973378
 30
0.0
 11
1457.907790442007
 21
811.9380078973378
 31
0.0
  0
LINE
  5
11C
330
1E
100
AcDbEntity
  8
ﾚｲﾔ1
  6
Continuous
 62
     7
100
AcDbLine
 10
1460.907790442007
 20
819.8420078973378
 30
0.0
 11
1460.907790442007
 21
792.4380078973378
 31
0.0
  0
LINE
  5
11D
330
1E
100
AcDbEntity
  8
ﾚｲﾔ1
  6
Continuous
 62
     7
100
AcDbLine
 10
1743.907790442007
 20
835.4380078973378
 30
0.0
 11
1745.907790442007
 21
833.4380078973378
 31
0.0
  0
LINE
  5
11E
330
1E
100
AcDbEntity
  8
ﾚｲﾔ1
  6
Continuous
 62
     7
100
AcDbLine
 10
1743.907790442007
 20
749.4380078973378
 30
0.0
 11
1745.907790442007
 21
751.4380078973378
 31
0.0
  0
LINE
  5
11F
330
1E
100
AcDbEntity
  8
ﾚｲﾔ1
  6
Continuous
 62
     7
100
AcDbLine
 10
1547.907790442007
 20
749.4380078973378
 30
0.0
 11
1743.907790442007
 21
749.4380078973378
 31
0.0
  0
LINE
  5
120
330
1E
100
AcDbEntity
  8
破線
  6
Continuous
 62
     3
100
AcDbLine
 10
1692.263790442007
 20
845.4380078973378
 30
0.0
 11
1693.232790442007
 21
841.8220078973378
 31
0.0
  0
LINE
  5
121
330
1E
100
AcDbEntity
  8
破線
  6
Continuous
 62
     3
100
AcDbLine
 10
1709.550790442007
 20
845.4380078973378
 30
0.0
 11
1708.581790442007
 21
841.8220078973378
 31
0.0
  0
LINE
  5
122
330
1E
100
AcDbEntity
  8
ﾚｲﾔ1
  6
Continuous
 62
     7
100
AcDbLine
 10
1692.263790442007
 20
845.4380078973378
 30
0.0
 11
1691.407790442007
 21
846.9220078973382
 31
0.0
  0
LINE
  5
123
330
1E
100
AcDbEntity
  8
ﾚｲﾔ1
  6
Continuous
 62
     7
100
AcDbLine
 10
1691.407790442007
 20
862.4380078973378
 30
0.0
 11
1691.407790442007
 21
846.9220078973382
 31
0.0
  0
LINE
  5
124
330
1E
100
AcDbEntity
  8
ﾚｲﾔ1
  6
Continuous
 62
     7
100
AcDbLine
 10
1709.550790442007
 20
845.4380078973378
 30
0.0
 11
1710.407790442007
 21
846.9220078973382
 31
0.0
  0
LINE
  5
125
330
1E
100
AcDbEntity
  8
ﾚｲﾔ1
  6
Continuous
 62
     7
100
AcDbLine
 10
1710.407790442007
 20
862.4380078973378
 30
0.0
 11
1710.407790442007
 21
846.9220078973382
 31
0.0
  0
ARC
  5
126
330
1E
100
AcDbEntity
  8
ﾚｲﾔ1
  6
Continuous
 62
     7
100
AcDbCircle
 10
1687.907790442007
 20
863.9380078973378
 30
0.0
 40
1.5
100
AcDbArc
 50
180.0
 51
270.0
  0
LINE
  5
127
330
1E
100
AcDbEntity
  8
ﾚｲﾔ1
  6
Continuous
 62
     7
100
AcDbLine
 10
1686.407790442007
 20
863.9380078973378
 30
0.0
 11
1686.407790442007
 21
868.9380078973378
 31
0.0
  0
ARC
  5
128
330
1E
100
AcDbEntity
  8
ﾚｲﾔ1
  6
Continuous
 62
     7
100
AcDbCircle
 10
1713.907790442007
 20
863.9380078973378
 30
0.0
 40
1.5
100
AcDbArc
 50
270.0
 51
0.0
  0
LINE
  5
129
330
1E
100
AcDbEntity
  8
ﾚｲﾔ1
  6
Continuous
 62
     7
100
AcDbLine
 10
1713.907790442007
 20
862.4380078973378
 30
0.0
 11
1687.907790442007
 21
862.4380078973378
 31
0.0
  0
LINE
  5
12A
330
1E
100
AcDbEntity
  8
ﾚｲﾔ1
  6
Continuous
 62
     7
100
AcDbLine
 10
1715.407790442007
 20
863.9380078973378
 30
0.0
 11
1715.407790442007
 21
868.9380078973378
 31
0.0
  0
ARC
  5
12B
330
1E
100
AcDbEntity
  8
ﾚｲﾔ1
  6
Continuous
 62
     7
100
AcDbCircle
 10
1713.907790442007
 20
884.9380078973378
 30
0.0
 40
1.5
100
AcDbArc
 50
0.0000136603957101
 51
90.0
  0
LINE
  5
12C
330
1E
100
AcDbEntity
  8
ﾚｲﾔ1
  6
Continuous
 62
     7
100
AcDbLine
 10
1715.407790442007
 20
879.9380078973378
 30
0.0
 11
1715.407790442007
 21
884.9380078973378
 31
0.0
  0
ARC
  5
12D
330
1E
100
AcDbEntity
  8
ﾚｲﾔ1
  6
DASHDOT
 62
     1
100
AcDbCircle
 10
1713.907790442007
 20
895.4380078973378
 30
0.0
 40
1.0
100
AcDbArc
 50
359.9980000000068
 51
90.00170000000199
  0
LINE
  5
12E
330
1E
100
AcDbEntity
  8
ﾚｲﾔ1
  6
DASHDOT
 62
     1
100
AcDbLine
 10
1714.907790442007
 20
887.4380078973378
 30
0.0
 11
1714.907790442007
 21
895.4380078973378
 31
0.0
  0
CIRCLE
  5
12F
330
1E
100
AcDbEntity
  8
ﾚｲﾔ1
  6
DASHDOT
 62
     1
100
AcDbCircle
 10
1700.907790442007
 20
899.4380078973378
 30
0.0
 40
1.5
  0
ARC
  5
130
330
1E
100
AcDbEntity
  8
ﾚｲﾔ1
  6
DASHDOT
 62
     1
100
AcDbCircle
 10
1713.907790442007
 20
887.4380078973378
 30
0.0
 40
1.0
100
AcDbArc
 50
269.9980000000068
 51
0.0
  0
ARC
  5
131
330
1E
100
AcDbEntity
  8
ﾚｲﾔ1
  6
DASHDOT
 62
     1
100
AcDbCircle
 10
1695.407790442007
 20
898.4380078973378
 30
0.0
 40
2.0
100
AcDbArc
 50
270.0009999999965
 51
0.0017365800000541
  0
ARC
  5
132
330
1E
100
AcDbEntity
  8
ﾚｲﾔ1
  6
DASHDOT
 62
     1
100
AcDbCircle
 10
1706.407790442007
 20
898.4380078973378
 30
0.0
 40
2.0
100
AcDbArc
 50
179.9980000000002
 51
269.9990000000035
  0
LINE
  5
133
330
1E
100
AcDbEntity
  8
ﾚｲﾔ1
  6
DASHDOT
 62
     1
100
AcDbLine
 10
1697.407790442007
 20
898.4380078973378
 30
0.0
 11
1697.407790442007
 21
898.9380078973378
 31
0.0
  0
LINE
  5
134
330
1E
100
AcDbEntity
  8
ﾚｲﾔ1
  6
DASHDOT
 62
     1
100
AcDbLine
 10
1704.407790442007
 20
898.4380078973378
 30
0.0
 11
1704.407790442007
 21
898.9380078973378
 31
0.0
  0
ARC
  5
135
330
1E
100
AcDbEntity
  8
ﾚｲﾔ1
  6
DASHDOT
 62
     1
100
AcDbCircle
 10
1700.907790442007
 20
898.9380078973378
 30
0.0
 40
3.500019999999999
100
AcDbArc
 50
0.0
 51
180.0
  0
LINE
  5
136
330
1E
100
AcDbEntity
  8
ﾚｲﾔ1
  6
Continuous
 62
     7
100
AcDbLine
 10
1710.407790442007
 20
846.9220078973382
 30
0.0
 11
1706.738790442007
 21
846.9220078973382
 31
0.0
  0
LINE
  5
137
330
1E
100
AcDbEntity
  8
ﾚｲﾔ1
  6
Continuous
 62
     7
100
AcDbLine
 10
1695.076790442007
 20
846.9220078973382
 30
0.0
 11
1691.407790442007
 21
846.9220078973382
 31
0.0
  0
LINE
  5
138
330
1E
100
AcDbEntity
  8
ﾚｲﾔ1
  6
Continuous
 62
     7
100
AcDbLine
 10
1704.946790442007
 20
841.4380078973378
 30
0.0
 11
1695.076790442007
 21
855.4380078973378
 31
0.0
  0
LINE
  5
139
330
1E
100
AcDbEntity
  8
ﾚｲﾔ1
  6
Continuous
 62
     7
100
AcDbLine
 10
1696.868790442007
 20
841.4380078973378
 30
0.0
 11
1706.738790442007
 21
855.4380078973378
 31
0.0
  0
LINE
  5
13A
330
1E
100
AcDbEntity
  8
破線
  6
Continuous
 62
     3
100
AcDbLine
 10
1693.232790442007
 20
841.8220078973378
 30
0.0
 11
1696.868790442007
 21
841.8220078973378
 31
0.0
  0
LINE
  5
13B
330
1E
100
AcDbEntity
  8
破線
  6
Continuous
 62
     3
100
AcDbLine
 10
1704.946790442007
 20
841.8220078973378
 30
0.0
 11
1708.581790442007
 21
841.8220078973378
 31
0.0
  0
LINE
  5
13C
330
1E
100
AcDbEntity
  8
ﾚｲﾔ1
  6
Continuous
 62
     7
100
AcDbLine
 10
1692.263790442007
 20
845.4380078973378
 30
0.0
 11
1696.610790442007
 21
845.4380078973378
 31
0.0
  0
LINE
  5
13D
330
1E
100
AcDbEntity
  8
ﾚｲﾔ1
  6
Continuous
 62
     7
100
AcDbLine
 10
1705.204790442007
 20
845.4380078973378
 30
0.0
 11
1709.550790442007
 21
845.4380078973378
 31
0.0
  0
LINE
  5
13E
330
1E
100
AcDbEntity
  8
破線
  6
Continuous
 62
     3
100
AcDbLine
 10
1713.907790442007
 20
868.9380078973378
 30
0.0
 11
1713.907790442007
 21
879.9380078973378
 31
0.0
  0
LINE
  5
13F
330
1E
100
AcDbEntity
  8
破線
  6
Continuous
 62
     3
100
AcDbLine
 10
1711.907790442007
 20
868.9380078973378
 30
0.0
 11
1711.907790442007
 21
879.9380078973378
 31
0.0
  0
LINE
  5
140
330
1E
100
AcDbEntity
  8
破線
  6
Continuous
 62
     3
100
AcDbLine
 10
1709.907790442007
 20
868.9380078973378
 30
0.0
 11
1709.907790442007
 21
879.9380078973378
 31
0.0
  0
LINE
  5
141
330
1E
100
AcDbEntity
  8
破線
  6
Continuous
 62
     3
100
AcDbLine
 10
1707.907790442007
 20
868.9380078973378
 30
0.0
 11
1707.907790442007
 21
879.9380078973378
 31
0.0
  0
LINE
  5
142
330
1E
100
AcDbEntity
  8
破線
  6
Continuous
 62
     3
100
AcDbLine
 10
1705.907790442007
 20
868.9380078973378
 30
0.0
 11
1705.907790442007
 21
879.9380078973378
 31
0.0
  0
LINE
  5
143
330
1E
100
AcDbEntity
  8
破線
  6
Continuous
 62
     3
100
AcDbLine
 10
1703.907790442007
 20
868.9380078973378
 30
0.0
 11
1703.907790442007
 21
879.9380078973378
 31
0.0
  0
LINE
  5
144
330
1E
100
AcDbEntity
  8
破線
  6
Continuous
 62
     3
100
AcDbLine
 10
1701.907790442007
 20
868.9380078973378
 30
0.0
 11
1701.907790442007
 21
879.9380078973378
 31
0.0
  0
LINE
  5
145
330
1E
100
AcDbEntity
  8
破線
  6
Continuous
 62
     3
100
AcDbLine
 10
1699.907790442007
 20
868.9380078973378
 30
0.0
 11
1699.907790442007
 21
879.9380078973378
 31
0.0
  0
LINE
  5
146
330
1E
100
AcDbEntity
  8
破線
  6
Continuous
 62
     3
100
AcDbLine
 10
1697.907790442007
 20
868.9380078973378
 30
0.0
 11
1697.907790442007
 21
879.9380078973378
 31
0.0
  0
LINE
  5
147
330
1E
100
AcDbEntity
  8
破線
  6
Continuous
 62
     3
100
AcDbLine
 10
1695.907790442007
 20
868.9380078973378
 30
0.0
 11
1695.907790442007
 21
879.9380078973378
 31
0.0
  0
LINE
  5
148
330
1E
100
AcDbEntity
  8
破線
  6
Continuous
 62
     3
100
AcDbLine
 10
1693.907790442007
 20
868.9380078973378
 30
0.0
 11
1693.907790442007
 21
879.9380078973378
 31
0.0
  0
LINE
  5
149
330
1E
100
AcDbEntity
  8
破線
  6
Continuous
 62
     3
100
AcDbLine
 10
1691.907790442007
 20
868.9380078973378
 30
0.0
 11
1691.907790442007
 21
879.9380078973378
 31
0.0
  0
LINE
  5
14A
330
1E
100
AcDbEntity
  8
ﾚｲﾔ1
  6
DASHDOT
 62
     1
100
AcDbLine
 10
1700.907790442007
 20
905.4380078973378
 30
0.0
 11
1700.907790442007
 21
807.4380078973378
 31
0.0
  0
LINE
  5
14B
330
1E
100
AcDbEntity
  8
破線
  6
Continuous
 62
     3
100
AcDbLine
 10
1689.907790442007
 20
868.9380078973378
 30
0.0
 11
1689.907790442007
 21
879.9380078973378
 31
0.0
  0
LINE
  5
14C
330
1E
100
AcDbEntity
  8
破線
  6
Continuous
 62
     3
100
AcDbLine
 10
1687.907790442007
 20
868.9380078973378
 30
0.0
 11
1687.907790442007
 21
879.9380078973378
 31
0.0
  0
ARC
  5
14D
330
1E
100
AcDbEntity
  8
ﾚｲﾔ1
  6
Continuous
 62
     7
100
AcDbCircle
 10
1687.907790442007
 20
884.9380078973378
 30
0.0
 40
1.5
100
AcDbArc
 50
90.0
 51
180.0
  0
LINE
  5
14E
330
1E
100
AcDbEntity
  8
ﾚｲﾔ1
  6
Continuous
 62
     7
100
AcDbLine
 10
1686.407790442007
 20
879.9380078973378
 30
0.0
 11
1686.407790442007
 21
884.9380078973378
 31
0.0
  0
ARC
  5
14F
330
1E
100
AcDbEntity
  8
ﾚｲﾔ1
  6
DASHDOT
 62
     1
100
AcDbCircle
 10
1687.907790442007
 20
895.4380078973378
 30
0.0
 40
1.0
100
AcDbArc
 50
89.99829999999804
 51
179.995999999998
  0
LINE
  5
150
330
1E
100
AcDbEntity
  8
ﾚｲﾔ1
  6
DASHDOT
 62
     1
100
AcDbLine
 10
1686.907790442007
 20
887.4380078973378
 30
0.0
 11
1686.907790442007
 21
895.4380078973378
 31
0.0
  0
ARC
  5
151
330
1E
100
AcDbEntity
  8
ﾚｲﾔ1
  6
DASHDOT
 62
     1
100
AcDbCircle
 10
1687.907790442007
 20
887.4380078973378
 30
0.0
 40
1.0
100
AcDbArc
 50
180.0009999999965
 51
270.0019999999932
  0
LINE
  5
152
330
1E
100
AcDbEntity
  8
ﾚｲﾔ1
  6
Continuous
 62
     7
100
AcDbLine
 10
1687.907790442007
 20
886.4380078973378
 30
0.0
 11
1713.907790442007
 21
886.4380078973378
 31
0.0
  0
LINE
  5
153
330
1E
100
AcDbEntity
  8
ﾚｲﾔ1
  6
DASHDOT
 62
     1
100
AcDbLine
 10
1687.907790442007
 20
896.4380078973378
 30
0.0
 11
1713.907790442007
 21
896.4380078973378
 31
0.0
  0
LINE
  5
154
330
1E
100
AcDbEntity
  8
ﾚｲﾔ1
  6
Continuous
 62
     1
100
AcDbLine
 10
1450.907790442007
 20
755.4380078973378
 30
0.0
 11
1450.907790442007
 21
729.4380078973378
 31
0.0
  0
LINE
  5
155
330
1E
100
AcDbEntity
  8
ﾚｲﾔ1
  6
Continuous
 62
     1
100
AcDbLine
 10
1460.907790442007
 20
790.9380078973378
 30
0.0
 11
1460.907790442007
 21
729.4380078973378
 31
0.0
  0
LINE
  5
156
330
1E
100
AcDbEntity
  8
ﾚｲﾔ1
  6
Continuous
 62
     1
100
AcDbLine
 10
1450.907790442007
 20
732.4380078973378
 30
0.0
 11
1460.907790442007
 21
732.4380078973378
 31
0.0
  0
LINE
  5
157
330
1E
100
AcDbEntity
  8
ﾚｲﾔ1
  6
Continuous
 62
     1
100
AcDbLine
 10
1450.907790442007
 20
732.4380078973378
 30
0.0
 11
1455.407790442007
 21
731.6450078973379
 31
0.0
  0
LINE
  5
158
330
1E
100
AcDbEntity
  8
ﾚｲﾔ1
  6
Continuous
 62
     1
100
AcDbLine
 10
1450.907790442007
 20
732.4380078973378
 30
0.0
 11
1455.407790442007
 21
733.2310078973379
 31
0.0
  0
LINE
  5
159
330
1E
100
AcDbEntity
  8
ﾚｲﾔ1
  6
Continuous
 62
     1
100
AcDbLine
 10
1460.907790442007
 20
732.4380078973378
 30
0.0
 11
1456.407790442007
 21
733.2310078973379
 31
0.0
  0
LINE
  5
15A
330
1E
100
AcDbEntity
  8
ﾚｲﾔ1
  6
Continuous
 62
     1
100
AcDbLine
 10
1460.907790442007
 20
732.4380078973378
 30
0.0
 11
1456.407790442007
 21
731.6450078973379
 31
0.0
  0
TEXT
  5
15B
330
1E
100
AcDbEntity
  8
ﾚｲﾔ1
 62
     1
100
AcDbText
 10
1452.407790442007
 20
733.6380078973381
 30
0.0
 40
6.0
  1
10
 72
     1
 11
1455.907790442007
 21
733.6380078973381
 31
0.0
100
AcDbText
  0
LINE
  5
15C
330
1E
100
AcDbEntity
  8
ﾚｲﾔ1
  6
Continuous
 62
     1
100
AcDbLine
 10
1460.907790442007
 20
790.9380078973378
 30
0.0
 11
1460.907790442007
 21
729.4380078973378
 31
0.0
  0
LINE
  5
15D
330
1E
100
AcDbEntity
  8
ﾚｲﾔ1
  6
Continuous
 62
     1
100
AcDbLine
 10
1488.907790442007
 20
762.4380078973378
 30
0.0
 11
1488.907790442007
 21
729.4380078973378
 31
0.0
  0
LINE
  5
15E
330
1E
100
AcDbEntity
  8
ﾚｲﾔ1
  6
Continuous
 62
     1
100
AcDbLine
 10
1460.907790442007
 20
732.4380078973378
 30
0.0
 11
1488.907790442007
 21
732.4380078973378
 31
0.0
  0
LINE
  5
15F
330
1E
100
AcDbEntity
  8
ﾚｲﾔ1
  6
Continuous
 62
     1
100
AcDbLine
 10
1460.907790442007
 20
732.4380078973378
 30
0.0
 11
1465.407790442007
 21
731.6450078973379
 31
0.0
  0
LINE
  5
160
330
1E
100
AcDbEntity
  8
ﾚｲﾔ1
  6
Continuous
 62
     1
100
AcDbLine
 10
1460.907790442007
 20
732.4380078973378
 30
0.0
 11
1465.407790442007
 21
733.2310078973379
 31
0.0
  0
LINE
  5
161
330
1E
100
AcDbEntity
  8
ﾚｲﾔ1
  6
Continuous
 62
     1
100
AcDbLine
 10
1488.907790442007
 20
732.4380078973378
 30
0.0
 11
1484.407790442007
 21
733.2310078973379
 31
0.0
  0
LINE
  5
162
330
1E
100
AcDbEntity
  8
ﾚｲﾔ1
  6
Continuous
 62
     1
100
AcDbLine
 10
1488.907790442007
 20
732.4380078973378
 30
0.0
 11
1484.407790442007
 21
731.6450078973379
 31
0.0
  0
TEXT
  5
163
330
1E
100
AcDbEntity
  8
ﾚｲﾔ1
 62
     1
100
AcDbText
 10
1469.907790442007
 20
733.6380078973381
 30
0.0
 40
6.0
  1
28
 72
     1
 11
1474.907790442007
 21
733.6380078973381
 31
0.0
100
AcDbText
  0
LINE
  5
164
330
1E
100
AcDbEntity
  8
ﾚｲﾔ1
  6
Continuous
 62
     1
100
AcDbLine
 10
1489.907790442007
 20
751.4380078973378
 30
0.0
 11
1489.907790442007
 21
729.4380078973378
 31
0.0
  0
LINE
  5
165
330
1E
100
AcDbEntity
  8
ﾚｲﾔ1
  6
Continuous
 62
     1
100
AcDbLine
 10
1539.907790442007
 20
748.8680078973381
 30
0.0
 11
1539.907790442007
 21
729.4380078973378
 31
0.0
  0
LINE
  5
166
330
1E
100
AcDbEntity
  8
ﾚｲﾔ1
  6
Continuous
 62
     1
100
AcDbLine
 10
1489.907790442007
 20
732.4380078973378
 30
0.0
 11
1539.907790442007
 21
732.4380078973378
 31
0.0
  0
LINE
  5
167
330
1E
100
AcDbEntity
  8
ﾚｲﾔ1
  6
Continuous
 62
     1
100
AcDbLine
 10
1489.907790442007
 20
732.4380078973378
 30
0.0
 11
1494.407790442007
 21
731.6450078973379
 31
0.0
  0
LINE
  5
168
330
1E
100
AcDbEntity
  8
ﾚｲﾔ1
  6
Continuous
 62
     1
100
AcDbLine
 10
1489.907790442007
 20
732.4380078973378
 30
0.0
 11
1494.407790442007
 21
733.2310078973379
 31
0.0
  0
LINE
  5
169
330
1E
100
AcDbEntity
  8
ﾚｲﾔ1
  6
Continuous
 62
     1
100
AcDbLine
 10
1539.907790442007
 20
732.4380078973378
 30
0.0
 11
1535.407790442007
 21
733.2310078973379
 31
0.0
  0
LINE
  5
16A
330
1E
100
AcDbEntity
  8
ﾚｲﾔ1
  6
Continuous
 62
     1
100
AcDbLine
 10
1539.907790442007
 20
732.4380078973378
 30
0.0
 11
1535.407790442007
 21
731.6450078973379
 31
0.0
  0
TEXT
  5
16B
330
1E
100
AcDbEntity
  8
ﾚｲﾔ1
 62
     1
100
AcDbText
 10
1510.407790442007
 20
733.6380078973381
 30
0.0
 40
6.0
  1
50
 72
     1
 11
1514.907790442007
 21
733.6380078973381
 31
0.0
100
AcDbText
  0
LINE
  5
16C
330
1E
100
AcDbEntity
  8
ﾚｲﾔ1
  6
Continuous
 62
     1
100
AcDbLine
 10
1450.907790442007
 20
755.4380078973378
 30
0.0
 11
1450.907790442007
 21
714.4380078973378
 31
0.0
  0
LINE
  5
16D
330
1E
100
AcDbEntity
  8
ﾚｲﾔ1
  6
Continuous
 62
     1
100
AcDbLine
 10
1539.907790442007
 20
748.8680078973381
 30
0.0
 11
1539.907790442007
 21
714.4380078973378
 31
0.0
  0
LINE
  5
16E
330
1E
100
AcDbEntity
  8
ﾚｲﾔ1
  6
Continuous
 62
     1
100
AcDbLine
 10
1450.907790442007
 20
717.4380078973378
 30
0.0
 11
1539.907790442007
 21
717.4380078973378
 31
0.0
  0
LINE
  5
16F
330
1E
100
AcDbEntity
  8
ﾚｲﾔ1
  6
Continuous
 62
     1
100
AcDbLine
 10
1450.907790442007
 20
717.4380078973378
 30
0.0
 11
1455.407790442007
 21
716.6450078973379
 31
0.0
  0
LINE
  5
170
330
1E
100
AcDbEntity
  8
ﾚｲﾔ1
  6
Continuous
 62
     1
100
AcDbLine
 10
1450.907790442007
 20
717.4380078973378
 30
0.0
 11
1455.407790442007
 21
718.2310078973379
 31
0.0
  0
LINE
  5
171
330
1E
100
AcDbEntity
  8
ﾚｲﾔ1
  6
Continuous
 62
     1
100
AcDbLine
 10
1539.907790442007
 20
717.4380078973378
 30
0.0
 11
1535.407790442007
 21
718.2310078973379
 31
0.0
  0
LINE
  5
172
330
1E
100
AcDbEntity
  8
ﾚｲﾔ1
  6
Continuous
 62
     1
100
AcDbLine
 10
1539.907790442007
 20
717.4380078973378
 30
0.0
 11
1535.407790442007
 21
716.6450078973379
 31
0.0
  0
TEXT
  5
173
330
1E
100
AcDbEntity
  8
ﾚｲﾔ1
 62
     1
100
AcDbText
 10
1490.407790442007
 20
718.6380078973378
 30
0.0
 40
6.0
  1
89
 72
     1
 11
1495.407790442007
 21
718.6380078973378
 31
0.0
100
AcDbText
  0
LINE
  5
174
330
1E
100
AcDbEntity
  8
ﾚｲﾔ1
  6
Continuous
 62
     1
100
AcDbLine
 10
1450.907790442007
 20
755.4380078973378
 30
0.0
 11
1450.907790442007
 21
699.4380078973378
 31
0.0
  0
LINE
  5
175
330
1E
100
AcDbEntity
  8
ﾚｲﾔ1
  6
Continuous
 62
     1
100
AcDbLine
 10
1745.907790442007
 20
749.9380078973378
 30
0.0
 11
1745.907790442007
 21
699.4380078973378
 31
0.0
  0
LINE
  5
176
330
1E
100
AcDbEntity
  8
ﾚｲﾔ1
  6
Continuous
 62
     1
100
AcDbLine
 10
1450.907790442007
 20
702.4380078973378
 30
0.0
 11
1745.907790442007
 21
702.4380078973378
 31
0.0
  0
LINE
  5
177
330
1E
100
AcDbEntity
  8
ﾚｲﾔ1
  6
Continuous
 62
     1
100
AcDbLine
 10
1450.907790442007
 20
702.4380078973378
 30
0.0
 11
1455.407790442007
 21
701.6450078973379
 31
0.0
  0
LINE
  5
178
330
1E
100
AcDbEntity
  8
ﾚｲﾔ1
  6
Continuous
 62
     1
100
AcDbLine
 10
1450.907790442007
 20
702.4380078973378
 30
0.0
 11
1455.407790442007
 21
703.2310078973379
 31
0.0
  0
LINE
  5
179
330
1E
100
AcDbEntity
  8
ﾚｲﾔ1
  6
Continuous
 62
     1
100
AcDbLine
 10
1745.907790442007
 20
702.4380078973378
 30
0.0
 11
1741.407790442007
 21
703.2310078973379
 31
0.0
  0
LINE
  5
17A
330
1E
100
AcDbEntity
  8
ﾚｲﾔ1
  6
Continuous
 62
     1
100
AcDbLine
 10
1745.907790442007
 20
702.4380078973378
 30
0.0
 11
1741.407790442007
 21
701.6450078973379
 31
0.0
  0
TEXT
  5
17B
330
1E
100
AcDbEntity
  8
ﾚｲﾔ1
 62
     1
100
AcDbText
 10
1590.407790442007
 20
703.6380078973381
 30
0.0
 40
6.0
  1
295
 72
     1
 11
1598.407790442007
 21
703.6380078973381
 31
0.0
100
AcDbText
  0
LINE
  5
17C
330
1E
100
AcDbEntity
  8
ﾚｲﾔ1
  6
Continuous
 62
     1
100
AcDbLine
 10
1451.407790442007
 20
829.9380078973378
 30
0.0
 11
1397.907790442007
 21
829.9380078973378
 31
0.0
  0
LINE
  5
17D
330
1E
100
AcDbEntity
  8
ﾚｲﾔ1
  6
Continuous
 62
     1
100
AcDbLine
 10
1451.407790442007
 20
754.9380078973378
 30
0.0
 11
1397.907790442007
 21
754.9380078973378
 31
0.0
  0
LINE
  5
17E
330
1E
100
AcDbEntity
  8
ﾚｲﾔ1
  6
Continuous
 62
     1
100
AcDbLine
 10
1400.907790442007
 20
829.9380078973378
 30
0.0
 11
1400.907790442007
 21
754.9380078973378
 31
0.0
  0
LINE
  5
17F
330
1E
100
AcDbEntity
  8
ﾚｲﾔ1
  6
Continuous
 62
     1
100
AcDbLine
 10
1400.907790442007
 20
829.9380078973378
 30
0.0
 11
1400.114290442007
 21
825.4380078973378
 31
0.0
  0
LINE
  5
180
330
1E
100
AcDbEntity
  8
ﾚｲﾔ1
  6
Continuous
 62
     1
100
AcDbLine
 10
1400.907790442007
 20
829.9380078973378
 30
0.0
 11
1401.701290442007
 21
825.4380078973378
 31
0.0
  0
LINE
  5
181
330
1E
100
AcDbEntity
  8
ﾚｲﾔ1
  6
Continuous
 62
     1
100
AcDbLine
 10
1400.907790442007
 20
754.9380078973378
 30
0.0
 11
1401.701290442007
 21
759.4380078973378
 31
0.0
  0
LINE
  5
182
330
1E
100
AcDbEntity
  8
ﾚｲﾔ1
  6
Continuous
 62
     1
100
AcDbLine
 10
1400.907790442007
 20
754.9380078973378
 30
0.0
 11
1400.114290442007
 21
759.4380078973378
 31
0.0
  0
TEXT
  5
183
330
1E
100
AcDbEntity
  8
ﾚｲﾔ1
 62
     1
100
AcDbText
 10
1399.707790442007
 20
784.4380078973378
 30
0.0
 40
6.0
  1
%%c75
 50
90.0
 72
     1
 11
1399.707790442007
 21
792.4380078973378
 31
0.0
100
AcDbText
  0
LINE
  5
184
330
1E
100
AcDbEntity
  8
ﾚｲﾔ1
  6
Continuous
 62
     1
100
AcDbLine
 10
1460.407790442007
 20
812.4380078973378
 30
0.0
 11
1412.907790442007
 21
812.4380078973378
 31
0.0
  0
LINE
  5
185
330
1E
100
AcDbEntity
  8
ﾚｲﾔ1
  6
Continuous
 62
     1
100
AcDbLine
 10
1415.907790442007
 20
812.4380078973378
 30
0.0
 11
1415.907790442007
 21
772.4380078973378
 31
0.0
  0
LWPOLYLINE
  5
186
330
1E
100
AcDbEntity
  8
ﾚｲﾔ1
  6
Continuous
 62
     1
100
AcDbPolyline
 90
        3
 70
     0
 43
0.0
 10
1416.701290442007
 20
807.9380078973378
 10
1415.907790442007
 20
812.4380078973378
 10
1415.114290442007
 20
807.9380078973378
  0
TEXT
  5
18B
330
1E
100
AcDbEntity
  8
ﾚｲﾔ1
 62
     1
100
AcDbText
 10
1414.707790442007
 20
777.4380078973378
 30
0.0
 40
6.0
  1
Ｍ４０×２
 50
90.0
100
AcDbText
  0
LINE
  5
18C
330
1E
100
AcDbEntity
  8
ﾚｲﾔ1
  6
Continuous
 62
     1
100
AcDbLine
 10
1625.907790442007
 20
749.4380078973378
 30
0.0
 11
1625.907790442007
 21
749.4380078973378
 31
0.0
  0
LINE
  5
18D
330
1E
100
AcDbEntity
  8
ﾚｲﾔ1
  6
Continuous
 62
     1
100
AcDbLine
 10
1625.907790442007
 20
835.4380078973378
 30
0.0
 11
1625.907790442007
 21
835.4380078973378
 31
0.0
  0
LINE
  5
18E
330
1E
100
AcDbEntity
  8
ﾚｲﾔ1
  6
Continuous
 62
     1
100
AcDbLine
 10
1625.907790442007
 20
749.4380078973378
 30
0.0
 11
1625.907790442007
 21
835.4380078973378
 31
0.0
  0
LINE
  5
18F
330
1E
100
AcDbEntity
  8
ﾚｲﾔ1
  6
Continuous
 62
     1
100
AcDbLine
 10
1625.907790442007
 20
749.4380078973378
 30
0.0
 11
1626.700790442007
 21
753.9380078973378
 31
0.0
  0
LINE
  5
190
330
1E
100
AcDbEntity
  8
ﾚｲﾔ1
  6
Continuous
 62
     1
100
AcDbLine
 10
1625.907790442007
 20
749.4380078973378
 30
0.0
 11
1625.114790442007
 21
753.9380078973378
 31
0.0
  0
LINE
  5
191
330
1E
100
AcDbEntity
  8
ﾚｲﾔ1
  6
Continuous
 62
     1
100
AcDbLine
 10
1625.907790442007
 20
835.4380078973378
 30
0.0
 11
1625.114790442007
 21
830.9380078973378
 31
0.0
  0
LINE
  5
192
330
1E
100
AcDbEntity
  8
ﾚｲﾔ1
  6
Continuous
 62
     1
100
AcDbLine
 10
1625.907790442007
 20
835.4380078973378
 30
0.0
 11
1626.700790442007
 21
830.9380078973378
 31
0.0
  0
TEXT
  5
193
330
1E
100
AcDbEntity
  8
ﾚｲﾔ1
 62
     1
100
AcDbText
 10
1624.707790442007
 20
784.4380078973378
 30
0.0
 40
6.0
  1
%%c86
 50
90.0
 72
     1
 11
1624.707790442007
 21
792.4380078973378
 31
0.0
100
AcDbText
  0
LINE
  5
194
330
1E
100
AcDbEntity
  8
ﾚｲﾔ1
  6
DASHDOT
 62
     1
100
AcDbLine
 10
1610.907790442007
 20
792.4380078973378
 30
0.0
 11
1618.407790442007
 21
792.4380078973378
 31
0.0
  0
LINE
  5
195
330
1E
100
AcDbEntity
  8
ﾚｲﾔ1
  6
DASHDOT
 62
     1
100
AcDbLine
 10
1445.907790442007
 20
792.4380078973378
 30
0.0
 11
1588.407790442007
 21
792.4380078973378
 31
0.0
  0
LINE
  5
196
330
1E
100
AcDbEntity
  8
ﾚｲﾔ1
  6
DASHDOT
 62
     1
100
AcDbLine
 10
1595.907790442007
 20
792.4380078973378
 30
0.0
 11
1603.407790442007
 21
792.4380078973378
 31
0.0
  0
LINE
  5
197
330
1E
100
AcDbEntity
  8
ﾚｲﾔ1
  6
Continuous
 62
     1
100
AcDbLine
 10
1595.907790442007
 20
820.9380078973378
 30
0.0
 11
1595.907790442007
 21
820.9380078973378
 31
0.0
  0
LINE
  5
198
330
1E
100
AcDbEntity
  8
ﾚｲﾔ1
  6
Continuous
 62
     1
100
AcDbLine
 10
1610.907790442007
 20
824.9380078973378
 30
0.0
 11
1610.907790442007
 21
824.9380078973378
 31
0.0
  0
LINE
  5
199
330
1E
100
AcDbEntity
  8
ﾚｲﾔ1
  6
Continuous
 62
     1
100
AcDbLine
 10
1700.907790442007
 20
906.9380078973378
 30
0.0
 11
1700.907790442007
 21
915.4380078973378
 31
0.0
  0
LINE
  5
19A
330
1E
100
AcDbEntity
  8
ﾚｲﾔ1
  6
Continuous
 62
     1
100
AcDbLine
 10
1745.907790442007
 20
834.9380078973378
 30
0.0
 11
1745.907790442007
 21
915.4380078973378
 31
0.0
  0
LINE
  5
19B
330
1E
100
AcDbEntity
  8
ﾚｲﾔ1
  6
Continuous
 62
     1
100
AcDbLine
 10
1700.907790442007
 20
912.4380078973378
 30
0.0
 11
1745.907790442007
 21
912.4380078973378
 31
0.0
  0
LINE
  5
19C
330
1E
100
AcDbEntity
  8
ﾚｲﾔ1
  6
Continuous
 62
     1
100
AcDbLine
 10
1700.907790442007
 20
912.4380078973378
 30
0.0
 11
1705.407790442007
 21
911.6450078973381
 31
0.0
  0
LINE
  5
19D
330
1E
100
AcDbEntity
  8
ﾚｲﾔ1
  6
Continuous
 62
     1
100
AcDbLine
 10
1700.907790442007
 20
912.4380078973378
 30
0.0
 11
1705.407790442007
 21
913.2310078973377
 31
0.0
  0
LINE
  5
19E
330
1E
100
AcDbEntity
  8
ﾚｲﾔ1
  6
Continuous
 62
     1
100
AcDbLine
 10
1745.907790442007
 20
912.4380078973378
 30
0.0
 11
1741.407790442007
 21
913.2310078973377
 31
0.0
  0
LINE
  5
19F
330
1E
100
AcDbEntity
  8
ﾚｲﾔ1
  6
Continuous
 62
     1
100
AcDbLine
 10
1745.907790442007
 20
912.4380078973378
 30
0.0
 11
1741.407790442007
 21
911.6450078973381
 31
0.0
  0
TEXT
  5
1A0
330
1E
100
AcDbEntity
  8
ﾚｲﾔ1
 62
     1
100
AcDbText
 10
1718.407790442007
 20
913.6380078973381
 30
0.0
 40
6.0
  1
45
 72
     1
 11
1723.407790442007
 21
913.6380078973381
 31
0.0
100
AcDbText
  0
LINE
  5
1A1
330
1E
100
AcDbEntity
  8
ﾚｲﾔ1
  6
Continuous
 62
     1
100
AcDbLine
 10
1715.407790442007
 20
868.9380078973378
 30
0.0
 11
1725.718790442007
 21
862.951007897338
 31
0.0
  0
LINE
  5
1A2
330
1E
100
AcDbEntity
  8
ﾚｲﾔ1
  6
Continuous
 62
     1
100
AcDbLine
 10
1715.407790442007
 20
868.9380078973378
 30
0.0
 11
1718.900790442007
 21
865.9920078973379
 31
0.0
  0
LINE
  5
1A3
330
1E
100
AcDbEntity
  8
ﾚｲﾔ1
  6
Continuous
 62
     1
100
AcDbLine
 10
1715.407790442007
 20
868.9380078973378
 30
0.0
 11
1719.697790442007
 21
867.3650078973379
 31
0.0
  0
TEXT
  5
1A4
330
1E
100
AcDbEntity
  8
ﾚｲﾔ1
 62
     1
100
AcDbText
 10
1727.307790442007
 20
856.3380078973377
 30
0.0
 40
6.171429999999999
  1
22
 41
0.5
100
AcDbText
  0
CIRCLE
  5
1A5
330
1E
100
AcDbEntity
  8
ﾚｲﾔ1
  6
Continuous
 62
     1
100
AcDbCircle
 10
1730.907790442007
 20
859.9380078973378
 30
0.0
 40
6.0
  0
TEXT
  5
1A6
330
1E
100
AcDbEntity
  8
ﾚｲﾔ1
 62
     1
100
AcDbText
 10
1753.407790442007
 20
829.9380078973378
 30
0.0
 40
6.0
  1
ＮＰＴ２山１１。５
100
AcDbText
  0
LWPOLYLINE
  5
1A7
330
1E
100
AcDbEntity
  8
ﾚｲﾔ1
  6
Continuous
 62
     1
100
AcDbPolyline
 90
        3
 70
     0
 43
0.0
 10
1709.300790442007
 20
837.4380078973378
 10
1730.907790442007
 20
844.9380078973378
 10
1783.407790442007
 20
844.9380078973378
  0
LINE
  5
1AC
330
1E
100
AcDbEntity
  8
ﾚｲﾔ1
  6
Continuous
 62
     1
100
AcDbLine
 10
1709.300790442007
 20
837.4380078973378
 30
0.0
 11
1713.812790442007
 21
838.1640078973379
 31
0.0
  0
LINE
  5
1AD
330
1E
100
AcDbEntity
  8
ﾚｲﾔ1
  6
Continuous
 62
     1
100
AcDbLine
 10
1709.300790442007
 20
837.4380078973378
 30
0.0
 11
1713.291790442007
 21
839.6630078973382
 31
0.0
  0
LWPOLYLINE
  5
1AE
330
1E
100
AcDbEntity
  8
ﾚｲﾔ1
  6
Continuous
 62
     1
100
AcDbPolyline
 90
        3
 70
     0
 43
0.0
 10
1738.407790442007
 20
822.2500078973382
 10
1753.407790442007
 20
829.9380078973378
 10
1805.907790442007
 20
829.9380078973378
  0
LINE
  5
1B3
330
1E
100
AcDbEntity
  8
ﾚｲﾔ1
  6
Continuous
 62
     1
100
AcDbLine
 10
1738.407790442007
 20
822.2500078973382
 30
0.0
 11
1742.774790442007
 21
823.5960078973382
 31
0.0
  0
LINE
  5
1B4
330
1E
100
AcDbEntity
  8
ﾚｲﾔ1
  6
Continuous
 62
     1
100
AcDbLine
 10
1738.407790442007
 20
822.2500078973382
 30
0.0
 11
1742.050790442007
 21
825.008007897338
 31
0.0
  0
TEXT
  5
1B5
330
1E
100
AcDbEntity
  8
ﾚｲﾔ1
 62
     1
100
AcDbText
 10
1408.407790442007
 20
844.9380078973378
 30
0.0
 40
6.0
  1
ＮＰＴ２山１１。５
100
AcDbText
  0
LWPOLYLINE
  5
1B6
330
1E
100
AcDbEntity
  8
ﾚｲﾔ1
  6
Continuous
 62
     1
100
AcDbPolyline
 90
        3
 70
     0
 43
0.0
 10
1475.907790442007
 20
822.0780078973379
 10
1460.907790442007
 20
844.9380078973378
 10
1408.407790442007
 20
844.9380078973378
  0
LINE
  5
1BB
330
1E
100
AcDbEntity
  8
ﾚｲﾔ1
  6
Continuous
 62
     1
100
AcDbLine
 10
1475.907790442007
 20
822.0780078973379
 30
0.0
 11
1474.102790442007
 21
826.2750078973378
 31
0.0
  0
LINE
  5
1BC
330
1E
100
AcDbEntity
  8
ﾚｲﾔ1
  6
Continuous
 62
     1
100
AcDbLine
 10
1475.907790442007
 20
822.0780078973379
 30
0.0
 11
1472.775790442007
 21
825.4050078973379
 31
0.0
  0
LINE
  5
1D7
330
1E
100
AcDbEntity
  8
ﾚｲﾔ1
  6
Continuous
 62
     7
100
AcDbLine
 10
1489.907790442007
 20
752.9380078973378
 30
0.0
 11
1489.907790442007
 21
831.9380078973378
 31
0.0
  0
LINE
  5
1D8
330
1E
100
AcDbEntity
  8
ﾚｲﾔ1
  6
Continuous
 62
     7
100
AcDbLine
 10
1489.907790442007
 20
820.9380078973378
 30
0.0
 11
1488.907790442007
 21
820.9380078973378
 31
0.0
  0
LINE
  5
1D9
330
1E
100
AcDbEntity
  8
ﾚｲﾔ1
  6
Continuous
 62
     7
100
AcDbLine
 10
1461.907790442007
 20
812.4380078973378
 30
0.0
 11
1489.907790442007
 21
812.4380078973378
 31
0.0
  0
LINE
  5
1DA
330
1E
100
AcDbEntity
  8
破線
  6
Continuous
 62
     3
100
AcDbLine
 10
1488.907790442007
 20
811.4380078973378
 30
0.0
 11
1489.907790442007
 21
811.4380078973378
 31
0.0
  0
LINE
  5
1DB
330
1E
100
AcDbEntity
  8
ﾚｲﾔ1
  6
Continuous
 62
     7
100
AcDbLine
 10
1490.907790442007
 20
751.9380078973378
 30
0.0
 11
1490.907790442007
 21
832.9380078973378
 31
0.0
  0
LINE
  5
1DC
330
1E
100
AcDbEntity
  8
ﾚｲﾔ1
  6
Continuous
 62
     7
100
AcDbLine
 10
1491.907790442007
 20
751.9380078973378
 30
0.0
 11
1491.907790442007
 21
832.9380078973378
 31
0.0
  0
LINE
  5
1DD
330
1E
100
AcDbEntity
  8
ﾚｲﾔ1
  6
Continuous
 62
     7
100
AcDbLine
 10
1492.957790442007
 20
750.3680078973381
 30
0.0
 11
1492.957790442007
 21
834.5080078973377
 31
0.0
  0
LINE
  5
1DE
330
1E
100
AcDbEntity
  8
ﾚｲﾔ1
  6
Continuous
 62
     7
100
AcDbLine
 10
1547.907790442007
 20
835.4380078973378
 30
0.0
 11
1743.907790442007
 21
835.4380078973378
 31
0.0
  0
LINE
  5
1DF
330
1E
100
AcDbEntity
  8
ﾚｲﾔ1
  6
Continuous
 62
     7
100
AcDbLine
 10
1692.263790442007
 20
845.4380078973378
 30
0.0
 11
1692.576790442007
 21
835.4380078973378
 31
0.0
  0
LINE
  5
1E0
330
1E
100
AcDbEntity
  8
ﾚｲﾔ1
  6
Continuous
 62
     7
100
AcDbLine
 10
1709.550790442007
 20
845.4380078973378
 30
0.0
 11
1709.238790442007
 21
835.4380078973378
 31
0.0
  0
LINE
  5
1E1
330
1E
100
AcDbEntity
  8
破線
  6
Continuous
 62
     3
100
AcDbLine
 10
1693.232790442007
 20
841.8220078973378
 30
0.0
 11
1693.432790442007
 21
835.4380078973378
 31
0.0
  0
LINE
  5
1E2
330
1E
100
AcDbEntity
  8
破線
  6
Continuous
 62
     3
100
AcDbLine
 10
1708.581790442007
 20
841.8220078973378
 30
0.0
 11
1708.382790442007
 21
835.4380078973378
 31
0.0
  0
LINE
  5
1E3
330
1E
100
AcDbEntity
  8
ﾚｲﾔ1
  6
Continuous
 62
     1
100
AcDbLine
 10
1722.907790442007
 20
763.3780078973379
 30
0.0
 11
1722.907790442007
 21
729.4380078973378
 31
0.0
  0
LINE
  5
1E4
330
1E
100
AcDbEntity
  8
ﾚｲﾔ1
  6
Continuous
 62
     1
100
AcDbLine
 10
1717.907790442007
 20
763.7060078973378
 30
0.0
 11
1717.907790442007
 21
729.4380078973378
 31
0.0
  0
LINE
  5
1E5
330
1E
100
AcDbEntity
  8
ﾚｲﾔ1
  6
Continuous
 62
     1
100
AcDbLine
 10
1722.907790442007
 20
732.4380078973378
 30
0.0
 11
1717.907790442007
 21
732.4380078973378
 31
0.0
  0
LINE
  5
1E6
330
1E
100
AcDbEntity
  8
ﾚｲﾔ1
  6
Continuous
 62
     1
100
AcDbLine
 10
1722.907790442007
 20
732.4380078973378
 30
0.0
 11
1729.407790442007
 21
732.4380078973378
 31
0.0
  0
LINE
  5
1E7
330
1E
100
AcDbEntity
  8
ﾚｲﾔ1
  6
Continuous
 62
     1
100
AcDbLine
 10
1722.907790442007
 20
732.4380078973378
 30
0.0
 11
1727.407790442007
 21
731.6450078973379
 31
0.0
  0
LINE
  5
1E8
330
1E
100
AcDbEntity
  8
ﾚｲﾔ1
  6
Continuous
 62
     1
100
AcDbLine
 10
1722.907790442007
 20
732.4380078973378
 30
0.0
 11
1727.407790442007
 21
733.2310078973379
 31
0.0
  0
LINE
  5
1E9
330
1E
100
AcDbEntity
  8
ﾚｲﾔ1
  6
Continuous
 62
     1
100
AcDbLine
 10
1717.907790442007
 20
732.4380078973378
 30
0.0
 11
1713.407790442007
 21
733.2310078973379
 31
0.0
  0
LINE
  5
1EA
330
1E
100
AcDbEntity
  8
ﾚｲﾔ1
  6
Continuous
 62
     1
100
AcDbLine
 10
1717.907790442007
 20
732.4380078973378
 30
0.0
 11
1713.407790442007
 21
731.6450078973379
 31
0.0
  0
LINE
  5
1EB
330
1E
100
AcDbEntity
  8
ﾚｲﾔ1
  6
Continuous
 62
     1
100
AcDbLine
 10
1722.907790442007
 20
732.4380078973378
 30
0.0
 11
1729.407790442007
 21
732.4380078973378
 31
0.0
  0
LINE
  5
1EC
330
1E
100
AcDbEntity
  8
ﾚｲﾔ1
  6
Continuous
 62
     1
100
AcDbLine
 10
1717.907790442007
 20
732.4380078973378
 30
0.0
 11
1712.282790442007
 21
732.4380078973378
 31
0.0
  0
TEXT
  5
1ED
330
1E
100
AcDbEntity
  8
ﾚｲﾔ1
 62
     1
100
AcDbText
 10
1724.407790442007
 20
733.6380078973381
 30
0.0
 40
6.0
  1
5
 72
     1
 11
1726.407790442007
 21
733.6380078973381
 31
0.0
100
AcDbText
  0
LINE
  5
1EE
330
1E
100
AcDbEntity
  8
ﾚｲﾔ1
  6
Continuous
 62
     1
100
AcDbLine
 10
1717.907790442007
 20
763.7060078973378
 30
0.0
 11
1717.907790442007
 21
714.4380078973378
 31
0.0
  0
LINE
  5
1EF
330
1E
100
AcDbEntity
  8
ﾚｲﾔ1
  6
Continuous
 62
     1
100
AcDbLine
 10
1745.907790442007
 20
749.9380078973378
 30
0.0
 11
1745.907790442007
 21
714.4380078973378
 31
0.0
  0
LINE
  5
1F0
330
1E
100
AcDbEntity
  8
ﾚｲﾔ1
  6
Continuous
 62
     1
100
AcDbLine
 10
1717.907790442007
 20
717.4380078973378
 30
0.0
 11
1745.907790442007
 21
717.4380078973378
 31
0.0
  0
LINE
  5
1F1
330
1E
100
AcDbEntity
  8
ﾚｲﾔ1
  6
Continuous
 62
     1
100
AcDbLine
 10
1717.907790442007
 20
717.4380078973378
 30
0.0
 11
1722.407790442007
 21
716.6450078973379
 31
0.0
  0
LINE
  5
1F2
330
1E
100
AcDbEntity
  8
ﾚｲﾔ1
  6
Continuous
 62
     1
100
AcDbLine
 10
1717.907790442007
 20
717.4380078973378
 30
0.0
 11
1722.407790442007
 21
718.2310078973379
 31
0.0
  0
LINE
  5
1F3
330
1E
100
AcDbEntity
  8
ﾚｲﾔ1
  6
Continuous
 62
     1
100
AcDbLine
 10
1745.907790442007
 20
717.4380078973378
 30
0.0
 11
1741.407790442007
 21
718.2310078973379
 31
0.0
  0
LINE
  5
1F4
330
1E
100
AcDbEntity
  8
ﾚｲﾔ1
  6
Continuous
 62
     1
100
AcDbLine
 10
1745.907790442007
 20
717.4380078973378
 30
0.0
 11
1741.407790442007
 21
716.6450078973379
 31
0.0
  0
TEXT
  5
1F5
330
1E
100
AcDbEntity
  8
ﾚｲﾔ1
 62
     1
100
AcDbText
 10
1726.907790442007
 20
718.6380078973378
 30
0.0
 40
6.0
  1
28
 72
     1
 11
1731.907790442007
 21
718.6380078973378
 31
0.0
100
AcDbText
  0
LINE
  5
1F6
330
1E
100
AcDbEntity
  8
ﾚｲﾔ1
  6
DASHDOT
 62
     1
100
AcDbLine
 10
1625.907790442007
 20
792.4380078973378
 30
0.0
 11
1750.907790442007
 21
792.4380078973378
 31
0.0
  0
LINE
  5
1F7
330
1E
100
AcDbEntity
  8
ﾚｲﾔ1
  6
Continuous
 62
     7
100
AcDbLine
 10
1743.907790442007
 20
749.4380078973378
 30
0.0
 11
1743.907790442007
 21
835.4380078973378
 31
0.0
  0
LINE
  5
1F8
330
1E
100
AcDbEntity
  8
ﾚｲﾔ1
  6
Continuous
 62
     1
100
AcDbLine
 10
1595.907790442007
 20
763.9380078973378
 30
0.0
 11
1595.907790442007
 21
763.9380078973378
 31
0.0
  0
LINE
  5
1F9
330
1E
100
AcDbEntity
  8
ﾚｲﾔ1
  6
Continuous
 62
     1
100
AcDbLine
 10
1595.907790442007
 20
820.9380078973378
 30
0.0
 11
1595.907790442007
 21
820.9380078973378
 31
0.0
  0
LINE
  5
1FA
330
1E
100
AcDbEntity
  8
ﾚｲﾔ1
  6
Continuous
 62
     1
100
AcDbLine
 10
1595.907790442007
 20
763.9380078973378
 30
0.0
 11
1595.907790442007
 21
820.9380078973378
 31
0.0
  0
LINE
  5
1FB
330
1E
100
AcDbEntity
  8
ﾚｲﾔ1
  6
Continuous
 62
     1
100
AcDbLine
 10
1595.907790442007
 20
763.9380078973378
 30
0.0
 11
1596.700790442007
 21
768.4380078973378
 31
0.0
  0
LINE
  5
1FC
330
1E
100
AcDbEntity
  8
ﾚｲﾔ1
  6
Continuous
 62
     1
100
AcDbLine
 10
1595.907790442007
 20
763.9380078973378
 30
0.0
 11
1595.114790442007
 21
768.4380078973378
 31
0.0
  0
LINE
  5
1FD
330
1E
100
AcDbEntity
  8
ﾚｲﾔ1
  6
Continuous
 62
     1
100
AcDbLine
 10
1595.907790442007
 20
820.9380078973378
 30
0.0
 11
1595.114790442007
 21
816.4380078973378
 31
0.0
  0
LINE
  5
1FE
330
1E
100
AcDbEntity
  8
ﾚｲﾔ1
  6
Continuous
 62
     1
100
AcDbLine
 10
1595.907790442007
 20
820.9380078973378
 30
0.0
 11
1596.700790442007
 21
816.4380078973378
 31
0.0
  0
TEXT
  5
1FF
330
1E
100
AcDbEntity
  8
ﾚｲﾔ1
 62
     1
100
AcDbText
 10
1594.707790442007
 20
784.4380078973378
 30
0.0
 40
6.0
  1
%%c57
 50
90.0
 72
     1
 11
1594.707790442007
 21
792.4380078973378
 31
0.0
100
AcDbText
  0
LINE
  5
200
330
1E
100
AcDbEntity
  8
ﾚｲﾔ1
  6
Continuous
 62
     1
100
AcDbLine
 10
1610.907790442007
 20
759.9380078973378
 30
0.0
 11
1610.907790442007
 21
759.9380078973378
 31
0.0
  0
LINE
  5
201
330
1E
100
AcDbEntity
  8
ﾚｲﾔ1
  6
Continuous
 62
     1
100
AcDbLine
 10
1610.907790442007
 20
824.9380078973378
 30
0.0
 11
1610.907790442007
 21
824.9380078973378
 31
0.0
  0
LINE
  5
202
330
1E
100
AcDbEntity
  8
ﾚｲﾔ1
  6
Continuous
 62
     1
100
AcDbLine
 10
1610.907790442007
 20
759.9380078973378
 30
0.0
 11
1610.907790442007
 21
824.9380078973378
 31
0.0
  0
LINE
  5
203
330
1E
100
AcDbEntity
  8
ﾚｲﾔ1
  6
Continuous
 62
     1
100
AcDbLine
 10
1610.907790442007
 20
759.9380078973378
 30
0.0
 11
1611.700790442007
 21
764.4380078973378
 31
0.0
  0
LINE
  5
204
330
1E
100
AcDbEntity
  8
ﾚｲﾔ1
  6
Continuous
 62
     1
100
AcDbLine
 10
1610.907790442007
 20
759.9380078973378
 30
0.0
 11
1610.114790442007
 21
764.4380078973378
 31
0.0
  0
LINE
  5
205
330
1E
100
AcDbEntity
  8
ﾚｲﾔ1
  6
Continuous
 62
     1
100
AcDbLine
 10
1610.907790442007
 20
824.9380078973378
 30
0.0
 11
1610.114790442007
 21
820.4380078973378
 31
0.0
  0
LINE
  5
206
330
1E
100
AcDbEntity
  8
ﾚｲﾔ1
  6
Continuous
 62
     1
100
AcDbLine
 10
1610.907790442007
 20
824.9380078973378
 30
0.0
 11
1611.700790442007
 21
820.4380078973378
 31
0.0
  0
TEXT
  5
207
330
1E
100
AcDbEntity
  8
ﾚｲﾔ1
 62
     1
100
AcDbText
 10
1609.707790442007
 20
784.4380078973378
 30
0.0
 40
6.0
  1
%%c65
 50
90.0
 72
     1
 11
1609.707790442007
 21
792.4380078973378
 31
0.0
100
AcDbText
  0
LWPOLYLINE
  5
208
330
1E
100
AcDbEntity
  8
ﾚｲﾔ1
  6
Continuous
 62
     1
100
AcDbPolyline
 90
        3
 70
     0
 43
0.0
 10
1535.907790442007
 20
834.5080078973377
 10
1550.907790442007
 20
867.4380078973378
 10
1483.407790442007
 20
867.4380078973378
  0
LINE
  5
20D
330
1E
100
AcDbEntity
  8
ﾚｲﾔ1
  6
Continuous
 62
     1
100
AcDbLine
 10
1535.907790442007
 20
834.5080078973377
 30
0.0
 11
1538.494790442007
 21
838.2740078973378
 31
0.0
  0
LINE
  5
20E
330
1E
100
AcDbEntity
  8
ﾚｲﾔ1
  6
Continuous
 62
     1
100
AcDbLine
 10
1535.907790442007
 20
834.5080078973377
 30
0.0
 11
1537.050790442007
 21
838.9320078973379
 31
0.0
  0
TEXT
  5
20F
330
1E
100
AcDbEntity
  8
ﾚｲﾔ1
 62
     1
100
AcDbText
 10
1483.407790442007
 20
867.4380078973378
 30
0.0
 40
6.0
  1
ＮＳ３－５／１６山１２
100
AcDbText
  0
LINE
  5
226
330
1E
100
AcDbEntity
  8
ﾚｲﾔ1
  6
Continuous
 62
     7
100
AcDbLine
 10
1547.907790442007
 20
834.5080078973377
 30
0.0
 11
1547.907790442007
 21
749.4380078973378
 31
0.0
  0
LINE
  5
227
330
1E
100
AcDbEntity
  8
ﾚｲﾔ1
  6
Continuous
 62
     7
100
AcDbLine
 10
1539.907790442007
 20
750.3680078973381
 30
0.0
 11
1539.907790442007
 21
833.458007897338
 31
0.0
  0
LINE
  5
228
330
1E
100
AcDbEntity
  8
ﾚｲﾔ1
  6
Continuous
 62
     7
100
AcDbLine
 10
1461.907790442007
 20
812.4380078973378
 30
0.0
 11
1461.907790442007
 21
792.4380078973378
 31
0.0
  0
LWPOLYLINE
  5
23A
330
1E
100
AcDbEntity
  8
破線
  6
DOT
 62
     3
100
AcDbPolyline
 90
        9
 70
     0
 43
0.0
 10
1460.907790442007
 20
814.4380078973378
 10
1461.407790442007
 20
814.9380078973378
 10
1470.407790442007
 20
814.9380078973378
 10
1470.907790442007
 20
814.4380078973378
 10
1470.907790442007
 20
809.4380078973378
 10
1470.407790442007
 20
808.9380078973378
 10
1461.407790442007
 20
808.9380078973378
 10
1460.907790442007
 20
809.4380078973378
 10
1460.907790442007
 20
814.4380078973378
  0
LINE
  5
245
330
1E
100
AcDbEntity
  8
破線
  6
DOT
 62
     3
100
AcDbLine
 10
1461.407790442007
 20
814.9380078973378
 30
0.0
 11
1461.407790442007
 21
808.9380078973378
 31
0.0
  0
LINE
  5
246
330
1E
100
AcDbEntity
  8
破線
  6
DOT
 62
     3
100
AcDbLine
 10
1470.407790442007
 20
808.9380078973378
 30
0.0
 11
1470.407790442007
 21
814.9380078973378
 31
0.0
  0
LINE
  5
247
330
1E
100
AcDbEntity
  8
破線
  6
DOT
 62
     3
100
AcDbLine
 10
1470.907790442007
 20
814.4380078973378
 30
0.0
 11
1460.907790442007
 21
814.4380078973378
 31
0.0
  0
LINE
  5
248
330
1E
100
AcDbEntity
  8
破線
  6
DOT
 62
     3
100
AcDbLine
 10
1460.907790442007
 20
809.4380078973378
 30
0.0
 11
1470.907790442007
 21
809.4380078973378
 31
0.0
  0
LINE
  5
249
330
1E
100
AcDbEntity
  8
破線
  6
DOT
 62
     3
100
AcDbLine
 10
1722.907790442007
 20
819.9980078973382
 30
0.0
 11
1744.083790442007
 21
820.660007897338
 31
0.0
  0
ARC
  5
24A
330
1E
100
AcDbEntity
  8
破線
  6
DOT
 62
     3
100
AcDbCircle
 10
1719.907790442007
 20
819.670007897338
 30
0.0
 40
2.0
100
AcDbArc
 50
91.78859999999969
 51
179.998999999997
  0
ARC
  5
24B
330
1E
100
AcDbEntity
  8
破線
  6
DOT
 62
     3
100
AcDbCircle
 10
1721.141790442007
 20
819.9430078973379
 30
0.0
 40
1.767009999999999
100
AcDbArc
 50
1.78886999999534
 51
91.7903000000016
  0
LINE
  5
24C
330
1E
100
AcDbEntity
  8
破線
  6
DOT
 62
     3
100
AcDbLine
 10
1719.845790442007
 20
821.669007897338
 30
0.0
 11
1721.086790442007
 21
821.708007897338
 31
0.0
  0
LINE
  5
24D
330
1E
100
AcDbEntity
  8
破線
  6
DOT
 62
     3
100
AcDbLine
 10
1745.907790442007
 20
822.4840078973378
 30
0.0
 11
1744.083790442007
 21
820.660007897338
 31
0.0
  0
LINE
  5
24E
330
1E
100
AcDbEntity
  8
破線
  6
DOT
 62
     3
100
AcDbLine
 10
1722.907790442007
 20
764.8780078973376
 30
0.0
 11
1744.083790442007
 21
764.2160078973378
 31
0.0
  0
ARC
  5
24F
330
1E
100
AcDbEntity
  8
破線
  6
DOT
 62
     3
100
AcDbCircle
 10
1719.907790442007
 20
765.2060078973378
 30
0.0
 40
2.0
100
AcDbArc
 50
180.0
 51
268.2109999999966
  0
ARC
  5
250
330
1E
100
AcDbEntity
  8
破線
  6
DOT
 62
     3
100
AcDbCircle
 10
1721.141790442007
 20
764.9330078973381
 30
0.0
 40
1.767009999999999
100
AcDbArc
 50
268.2099999999995
 51
358.2099999999995
  0
LINE
  5
251
330
1E
100
AcDbEntity
  8
破線
  6
DOT
 62
     3
100
AcDbLine
 10
1719.845790442007
 20
763.2060078973378
 30
0.0
 11
1721.086790442007
 21
763.1680078973378
 31
0.0
  0
LINE
  5
252
330
1E
100
AcDbEntity
  8
破線
  6
DOT
 62
     3
100
AcDbLine
 10
1745.907790442007
 20
762.392007897338
 30
0.0
 11
1744.083790442007
 21
764.2160078973378
 31
0.0
  0
LINE
  5
253
330
1E
100
AcDbEntity
  8
破線
  6
DOT
 62
     3
100
AcDbLine
 10
1721.086790442007
 20
821.708007897338
 30
0.0
 11
1745.907790442007
 21
822.4840078973378
 31
0.0
  0
LINE
  5
254
330
1E
100
AcDbEntity
  8
破線
  6
DOT
 62
     3
100
AcDbLine
 10
1721.086790442007
 20
763.1680078973378
 30
0.0
 11
1745.907790442007
 21
762.392007897338
 31
0.0
  0
LINE
  5
255
330
1E
100
AcDbEntity
  8
破線
  6
DOT
 62
     3
100
AcDbLine
 10
1722.907790442007
 20
819.9980078973382
 30
0.0
 11
1722.907790442007
 21
764.8780078973376
 31
0.0
  0
LINE
  5
256
330
1E
100
AcDbEntity
  8
破線
  6
DOT
 62
     3
100
AcDbLine
 10
1744.083790442007
 20
764.2160078973378
 30
0.0
 11
1744.083790442007
 21
820.660007897338
 31
0.0
  0
LINE
  5
257
330
1E
100
AcDbEntity
  8
破線
  6
HIDDEN
 62
     3
100
AcDbLine
 10
1565.907790442007
 20
820.9380078973378
 30
0.0
 11
1655.907790442007
 21
820.9380078973378
 31
0.0
  0
LINE
  5
258
330
1E
100
AcDbEntity
  8
破線
  6
HIDDEN
 62
     3
100
AcDbLine
 10
1565.907790442007
 20
824.9380078973378
 30
0.0
 11
1655.907790442007
 21
824.9380078973378
 31
0.0
  0
LINE
  5
259
330
1E
100
AcDbEntity
  8
破線
  6
HIDDEN
 62
     3
100
AcDbLine
 10
1565.907790442007
 20
763.9380078973378
 30
0.0
 11
1655.907790442007
 21
763.9380078973378
 31
0.0
  0
LINE
  5
25A
330
1E
100
AcDbEntity
  8
破線
  6
HIDDEN
 62
     3
100
AcDbLine
 10
1565.907790442007
 20
759.9380078973378
 30
0.0
 11
1655.907790442007
 21
759.9380078973378
 31
0.0
  0
TEXT
  5
25B
330
1E
100
AcDbEntity
  8
ﾚｲﾔ1
 62
     1
100
AcDbText
 10
1753.407790442007
 20
844.9380078973378
 30
0.0
 40
6.0
  1
Ｒ　３／８
100
AcDbText
  0
LWPOLYLINE
  5
25C
330
1E
100
AcDbEntity
  8
ﾚｲﾔ1
  6
Continuous
 62
     7
100
AcDbPolyline
 90
        9
 70
     0
 43
0.0
 10
1704.946790442007
 20
841.4380078973378
 10
1696.868790442007
 20
841.4380078973378
 10
1696.610790442007
 20
845.4380078973378
 10
1695.076790442007
 20
846.9220078973382
 10
1695.076790442007
 20
855.4380078973378
 10
1706.738790442007
 20
855.4380078973378
 10
1706.738790442007
 20
846.9220078973382
 10
1705.204790442007
 20
845.4380078973378
 10
1704.946790442007
 20
841.4380078973378
  0
LWPOLYLINE
  5
267
330
1E
100
AcDbEntity
  8
ﾚｲﾔ1
  6
Continuous
 62
     7
100
AcDbPolyline
 90
        5
 70
     0
 43
0.0
 10
1715.907790442007
 20
868.9380078973378
 10
1685.907790442007
 20
868.9380078973378
 10
1685.907790442007
 20
879.9380078973378
 10
1715.907790442007
 20
879.9380078973378
 10
1715.907790442007
 20
868.9380078973378
  0
LINE
  5
26E
330
1E
100
AcDbEntity
  8
ﾚｲﾔ1
  6
Continuous
 62
     7
100
AcDbLine
 10
1745.907790442007
 20
833.4380078973378
 30
0.0
 11
1745.907790442007
 21
751.4380078973378
 31
0.0
  0
LINE
  5
26F
330
1E
100
AcDbEntity
  8
破線
  6
DOT
 62
     3
100
AcDbLine
 10
1717.907790442007
 20
819.670007897338
 30
0.0
 11
1717.907790442007
 21
765.2060078973378
 31
0.0
  0
LINE
  5
270
330
1E
100
AcDbEntity
  8
ﾚｲﾔ1
  6
Continuous
 62
     7
100
AcDbLine
 10
1450.907790442007
 20
827.9380078973378
 30
0.0
 11
1450.907790442007
 21
756.9380078973378
 31
0.0
  0
LINE
  5
377
330
1E
100
AcDbEntity
  8
ﾚｲﾔ1
  6
CENTER
100
AcDbLine
 10
1365.061852439411
 20
792.4380078973378
 30
0.0
 11
1278.027905767867
 21
792.4380078973378
 31
0.0
  0
LINE
  5
378
330
1E
100
AcDbEntity
  8
ﾚｲﾔ1
  6
CENTER
100
AcDbLine
 10
1322.061852439411
 20
844.483495998964
 30
0.0
 11
1322.061852439411
 21
729.3042346817518
 31
0.0
  0
CIRCLE
  5
379
330
1E
100
AcDbEntity
  8
ﾚｲﾔ1
  6
Continuous
100
AcDbCircle
 10
1322.061852439411
 20
792.4380078973378
 30
0.0
 40
37.5
  0
CIRCLE
  5
37A
330
1E
100
AcDbEntity
  8
ﾚｲﾔ1
  6
Continuous
100
AcDbCircle
 10
1322.061852439411
 20
792.4380078973378
 30
0.0
 40
43.0
  0
CIRCLE
  5
37F
330
1E
100
AcDbEntity
  8
ﾚｲﾔ1
  6
Continuous
 62
     8
100
AcDbCircle
 10
1322.061852439411
 20
792.4380078973378
 30
0.0
 40
11.00000017911509
  0
CIRCLE
  5
380
330
1E
100
AcDbEntity
  8
ﾚｲﾔ1
  6
Continuous
 62
     8
100
AcDbCircle
 10
1322.061852439411
 20
792.4380078973378
 30
0.0
 40
13.99999982088491
  0
CIRCLE
  5
381
330
1E
100
AcDbEntity
  8
ﾚｲﾔ1
  6
Continuous
 62
     8
100
AcDbCircle
 10
1322.061852439411
 20
792.4380078973378
 30
0.0
 40
23.50000017911509
  0
CIRCLE
  5
382
330
1E
100
AcDbEntity
  8
ﾚｲﾔ1
  6
Continuous
 62
     8
100
AcDbCircle
 10
1322.061852439411
 20
792.4380078973378
 30
0.0
 40
26.49999966666667
  0
LWPOLYLINE
  5
4EF
330
1E
100
AcDbEntity
  8
ﾚｲﾔ1
100
AcDbPolyline
 90
        4
 70
     1
 43
0.0
 10
1175.720386501227
 20
1087.242411643012
 10
1888.530560915231
 20
1087.242411643012
 10
1888.530560915231
 20
583.2423716607747
 10
1175.720386501227
 20
583.2423716607747
  0
LINE
  5
4F0
330
1E
100
AcDbEntity
  8
図面枠
  6
Continuous
100
AcDbLine
 10
1850.377858083707
 20
1066.298548516935
 30
0.0
 11
1207.914917867736
 21
1066.298548516935
 31
0.0
  0
LINE
  5
4F1
330
1E
100
AcDbEntity
  8
図面枠
  6
Continuous
100
AcDbLine
 10
1212.921122596704
 20
1061.292343787966
 30
0.0
 11
1845.371653354785
 21
1061.292343787966
 31
0.0
  0
LINE
  5
4F2
330
1E
100
AcDbEntity
  8
図面枠
  6
Continuous
100
AcDbLine
 10
1207.914917867736
 20
1066.298548516935
 30
0.0
 11
1207.914917867736
 21
612.4026530916115
 31
0.0
  0
LINE
  5
4F3
330
1E
100
AcDbEntity
  8
図面枠
  6
Continuous
100
AcDbLine
 10
1212.921122596704
 20
617.40885782058
 30
0.0
 11
1212.921122596704
 21
1061.292343787966
 31
0.0
  0
LINE
  5
4F4
330
1E
100
AcDbEntity
  8
図面枠
  6
Continuous
100
AcDbLine
 10
1845.371653354785
 20
617.40885782058
 30
0.0
 11
1212.921122596704
 21
617.40885782058
 31
0.0
  0
LINE
  5
4F5
330
1E
100
AcDbEntity
  8
図面枠
  6
Continuous
100
AcDbLine
 10
1850.377858083707
 20
612.4026530916115
 30
0.0
 11
1207.914917867736
 21
612.4026530916115
 31
0.0
  0
LINE
  5
4F6
330
1E
100
AcDbEntity
  8
図面枠
  6
Continuous
100
AcDbLine
 10
1845.371653354785
 20
634.0962069170793
 30
0.0
 11
1775.284787149413
 21
634.0962069170793
 31
0.0
  0
LINE
  5
4F7
330
1E
100
AcDbEntity
  8
図面枠
  6
Continuous
100
AcDbLine
 10
1740.241354046681
 20
645.6104777937068
 30
0.0
 11
1840.03170164387
 21
645.6104777937068
 31
0.0
  0
LINE
  5
4F8
330
1E
100
AcDbEntity
  8
図面枠
  6
Continuous
100
AcDbLine
 10
1775.284787149413
 20
617.40885782058
 30
0.0
 11
1845.371653354785
 21
617.40885782058
 31
0.0
  0
LINE
  5
4F9
330
1E
100
AcDbEntity
  8
図面枠
  6
Continuous
100
AcDbLine
 10
1735.235149317713
 20
659.1272305618284
 30
0.0
 11
1845.371653354785
 21
659.1272305618284
 31
0.0
  0
LINE
  5
4FA
330
1E
100
AcDbEntity
  8
図面枠
  6
Continuous
100
AcDbLine
 10
1845.371653354785
 20
659.1272305618284
 30
0.0
 11
1726.891474769463
 21
659.1272305618284
 31
0.0
  0
LINE
  5
4FB
330
1E
100
AcDbEntity
  8
図面枠
  6
Continuous
100
AcDbLine
 10
1845.371653354785
 20
634.0962069170793
 30
0.0
 11
1735.235149317713
 21
634.0962069170793
 31
0.0
  0
MTEXT
  5
4FC
330
1E
100
AcDbEntity
  8
図面枠
370
    30
100
AcDbMText
 10
1736.325017153018
 20
611.0649914055375
 30
0.0
 40
7.34243360246829
 41
121.1823228341004
 71
     1
 72
     5
  1
株式会社　関東油機サービス
 73
     1
 44
1.0
  0
LINE
  5
4FD
330
1E
100
AcDbEntity
  8
図面枠
  6
Continuous
100
AcDbLine
 10
1750.253763504618
 20
634.0962069170793
 30
0.0
 11
1726.891474769463
 21
634.0962069170793
 31
0.0
  0
LINE
  5
4FE
330
1E
100
AcDbEntity
  8
図面枠
  6
Continuous
100
AcDbLine
 10
1726.891474769463
 20
625.7525323688296
 30
0.0
 11
1768.609847510757
 21
625.7525323688296
 31
0.0
  0
LINE
  5
4FF
330
1E
100
AcDbEntity
  8
図面枠
  6
Continuous
100
AcDbLine
 10
1726.891474769463
 20
617.40885782058
 30
0.0
 11
1750.253763504618
 21
617.40885782058
 31
0.0
  0
MTEXT
  5
500
330
1E
100
AcDbEntity
  8
ﾚｲﾔ1
100
AcDbMText
 10
1740.933696901344
 20
639.973684164161
 30
0.0
 40
5.039999999999999
 41
94.61726937725984
 71
     1
 72
     5
  1
{SM-2012}
 73
     1
 44
1.0
1001
ACAD
1000
ACAD_MTEXT_DEFINED_HEIGHT_BEGIN
1070
    46
1040
5.039999999999999
1000
ACAD_MTEXT_DEFINED_HEIGHT_END
  0
MTEXT
  5
501
330
1E
100
AcDbEntity
  8
ﾚｲﾔ1
100
AcDbMText
 10
1740.656816665467
 20
651.903363592202
 30
0.0
 40
5.039999999999999
 41
94.61726937725984
 71
     1
 72
     5
  1
{200KN125st 単動ジャッキ}
 73
     1
 44
1.0
1001
ACAD
1000
ACAD_MTEXT_DEFINED_HEIGHT_BEGIN
1070
    46
1040
5.039999999999999
1000
ACAD_MTEXT_DEFINED_HEIGHT_END
  0
LINE
  5
502
330
1E
100
AcDbEntity
  8
図面枠
  6
Continuous
100
AcDbLine
 10
1726.891474769463
 20
650.7835560135787
 30
0.0
 11
1726.891474769463
 21
642.439881465329
 31
0.0
  0
LINE
  5
503
330
1E
100
AcDbEntity
  8
図面枠
  6
Continuous
100
AcDbLine
 10
1726.891474769463
 20
642.439881465329
 30
0.0
 11
1726.891474769463
 21
634.0962069170793
 31
0.0
  0
LINE
  5
504
330
1E
100
AcDbEntity
  8
図面枠
  6
Continuous
100
AcDbLine
 10
1726.891474769463
 20
634.0962069170793
 30
0.0
 11
1726.891474769463
 21
617.40885782058
 31
0.0
  0
LINE
  5
505
330
1E
100
AcDbEntity
  8
図面枠
  6
Continuous
100
AcDbLine
 10
1726.891474769463
 20
634.0962069170793
 30
0.0
 11
1735.235149317713
 21
634.0962069170793
 31
0.0
  0
LINE
  5
506
330
1E
100
AcDbEntity
  8
図面枠
  6
Continuous
100
AcDbLine
 10
1726.891474769463
 20
659.1272305618284
 30
0.0
 11
1726.891474769463
 21
634.0962069170793
 31
0.0
  0
LINE
  5
507
330
1E
100
AcDbEntity
  8
図面枠
  6
Continuous
100
AcDbLine
 10
1735.235149317713
 20
634.0962069170793
 30
0.0
 11
1735.235149317713
 21
659.1272305618284
 31
0.0
  0
LINE
  5
508
330
1E
100
AcDbEntity
  8
図面枠
  6
Continuous
100
AcDbLine
 10
1726.891474769463
 20
617.40885782058
 30
0.0
 11
1726.891474769463
 21
634.0962069170793
 31
0.0
  0
LINE
  5
509
330
1E
100
AcDbEntity
  8
図面枠
  6
Continuous
100
AcDbLine
 10
1726.891474769463
 20
659.1272305618284
 30
0.0
 11
1726.891474769463
 21
650.7835560135787
 31
0.0
  0
LINE
  5
50A
330
1E
100
AcDbEntity
  8
図面枠
  6
Continuous
100
AcDbLine
 10
1735.235149317713
 20
659.1272305618284
 30
0.0
 11
1726.891474769463
 21
659.1272305618284
 31
0.0
  0
LINE
  5
50B
330
1E
100
AcDbEntity
  8
図面枠
  6
Continuous
100
AcDbLine
 10
1735.235149317713
 20
634.0962069170793
 30
0.0
 11
1735.235149317713
 21
659.1272305618284
 31
0.0
  0
TEXT
  5
50D
330
1E
100
AcDbEntity
  8
図面枠
100
AcDbText
 10
1730.998267746542
 20
618.3078705248666
 30
0.0
 40
5.006204728955655
  1
１：2
100
AcDbText
  0
TEXT
  5
50E
330
1E
100
AcDbEntity
  8
図面枠
100
AcDbText
 10
1729.844022354915
 20
626.5194349725043
 30
0.0
 40
6.674939638607539
  1
尺度
 41
1.125
100
AcDbText
  0
LINE
  5
50F
330
1E
100
AcDbEntity
  8
図面枠
  6
Continuous
100
AcDbLine
 10
1775.284787149413
 20
617.40885782058
 30
0.0
 11
1775.284787149413
 21
634.0962069170793
 31
0.0
  0
LINE
  5
510
330
1E
100
AcDbEntity
  8
図面枠
  6
Continuous
100
AcDbLine
 10
1775.284787149413
 20
634.0962069170793
 30
0.0
 11
1768.609847510757
 21
634.0962069170793
 31
0.0
  0
LINE
  5
511
330
1E
100
AcDbEntity
  8
図面枠
  6
Continuous
100
AcDbLine
 10
1768.609847510757
 20
617.40885782058
 30
0.0
 11
1775.284787149413
 21
617.40885782058
 31
0.0
  0
LINE
  5
512
330
1E
100
AcDbEntity
  8
図面枠
  6
Continuous
100
AcDbLine
 10
1768.609847510757
 20
634.0962069170793
 30
0.0
 11
1750.253763504618
 21
634.0962069170793
 31
0.0
  0
LINE
  5
513
330
1E
100
AcDbEntity
  8
図面枠
  6
Continuous
100
AcDbLine
 10
1768.609847510757
 20
634.0962069170793
 30
0.0
 11
1768.609847510757
 21
617.40885782058
 31
0.0
  0
LINE
  5
514
330
1E
100
AcDbEntity
  8
図面枠
  6
Continuous
100
AcDbLine
 10
1750.253763504618
 20
634.0962069170793
 30
0.0
 11
1750.253763504618
 21
617.40885782058
 31
0.0
  0
LINE
  5
515
330
1E
100
AcDbEntity
  8
図面枠
  6
Continuous
100
AcDbLine
 10
1768.609847510757
 20
617.40885782058
 30
0.0
 11
1768.609847510757
 21
634.0962069170793
 31
0.0
  0
LINE
  5
516
330
1E
100
AcDbEntity
  8
図面枠
  6
Continuous
100
AcDbLine
 10
1750.253763504618
 20
617.40885782058
 30
0.0
 11
1768.609847510757
 21
617.40885782058
 31
0.0
  0
LINE
  5
517
330
1E
100
AcDbEntity
  8
図面枠
  6
Continuous
100
AcDbLine
 10
1775.284787149413
 20
634.0962069170793
 30
0.0
 11
1775.284787149413
 21
617.40885782058
 31
0.0
  0
LINE
  5
518
330
1E
100
AcDbEntity
  8
図面枠
  6
Continuous
100
AcDbLine
 10
1750.253763504618
 20
617.40885782058
 30
0.0
 11
1750.253763504618
 21
634.0962069170793
 31
0.0
  0
TEXT
  5
519
330
1E
100
AcDbEntity
  8
図面枠
100
AcDbText
 10
1769.69452520205
 20
619.5782132030708
 30
0.0
 40
5.006204728955655
  1
番
100
AcDbText
  0
TEXT
  5
51A
330
1E
100
AcDbEntity
  8
図面枠
100
AcDbText
 10
1769.69452520205
 20
627.460332587572
 30
0.0
 40
5.006204728955655
  1
図
100
AcDbText
  0
LINE
  5
51B
330
1E
100
AcDbEntity
  8
図面枠
  6
Continuous
100
AcDbLine
 10
1845.371653354785
 20
659.1272305618284
 30
0.0
 11
1845.371653354785
 21
634.0962069170793
 31
0.0
  0
LINE
  5
51C
330
1E
100
AcDbEntity
  8
図面枠
  6
Continuous
100
AcDbLine
 10
1845.371653354785
 20
617.40885782058
 30
0.0
 11
1845.371653354785
 21
634.0962069170793
 31
0.0
  0
LINE
  5
51D
330
1E
100
AcDbEntity
  8
ﾚｲﾔ1
100
AcDbLine
 10
1686.181944179826
 20
966.2084153663609
 30
0.0
 11
1827.77722130242
 21
966.2084153663609
 31
0.0
  0
LINE
  5
51E
330
1E
100
AcDbEntity
  8
ﾚｲﾔ1
100
AcDbLine
 10
1686.181944179826
 20
992.1284153663796
 30
0.0
 11
1827.77722130242
 21
992.1284153663796
 31
0.0
  0
LINE
  5
51F
330
1E
100
AcDbEntity
  8
ﾚｲﾔ1
100
AcDbLine
 10
1686.181944179826
 20
1018.048415366305
 30
0.0
 11
1827.77722130242
 21
1018.048415366305
 31
0.0
  0
LINE
  5
520
330
1E
100
AcDbEntity
  8
ﾚｲﾔ1
100
AcDbLine
 10
1686.181944179826
 20
1005.088415366342
 30
0.0
 11
1827.77722130242
 21
1005.088415366342
 31
0.0
  0
LINE
  5
521
330
1E
100
AcDbEntity
  8
ﾚｲﾔ1
100
AcDbLine
 10
1686.181944179826
 20
1031.008415366361
 30
0.0
 11
1827.77722130242
 21
1031.008415366361
 31
0.0
  0
LINE
  5
522
330
1E
100
AcDbEntity
  8
ﾚｲﾔ1
100
AcDbLine
 10
1686.181944179826
 20
979.1684153663239
 30
0.0
 11
1827.77722130242
 21
979.1684153663239
 31
0.0
  0
LINE
  5
523
330
1E
100
AcDbEntity
  8
ﾚｲﾔ1
100
AcDbLine
 10
1686.181944179826
 20
953.2484153663984
 30
0.0
 11
1827.77722130242
 21
953.2484153663984
 31
0.0
  0
MTEXT
  5
524
330
1E
100
AcDbEntity
  8
ﾚｲﾔ1
100
AcDbMText
 10
1686.677192448138
 20
958.1021722265762
 30
0.0
 40
4.319999999999996
 41
695.4150224258116
 71
     1
 72
     5
  1
重　　量
 73
     1
 44
1.0
  0
MTEXT
  5
525
330
1E
100
AcDbEntity
  8
ﾚｲﾔ1
100
AcDbMText
 10
1686.948228111316
 20
1036.745948182629
 30
0.0
 40
5.039999999999999
 41
695.4150224258116
 71
     1
 72
     5
  1
能　　力
 73
     1
 44
1.0
  0
MTEXT
  5
526
330
1E
100
AcDbEntity
  8
ﾚｲﾔ1
100
AcDbMText
 10
1687.662106083951
 20
971.9973548040039
 30
0.0
 40
4.319999999999996
 41
695.4150224258116
 71
     1
 72
     5
  1
ロ　ッ　ド　径
 73
     1
 44
1.0
  0
MTEXT
  5
527
330
1E
100
AcDbEntity
  8
ﾚｲﾔ1
100
AcDbMText
 10
1686.789763143578
 20
998.2570341232476
 30
0.0
 40
5.039999999999999
 41
695.4150224258116
 71
     1
 72
     5
  1
使　用　圧　力
 73
     1
 44
1.0
  0
MTEXT
  5
528
330
1E
100
AcDbEntity
  8
ﾚｲﾔ1
100
AcDbMText
 10
1686.875857417623
 20
1010.853222477088
 30
0.0
 40
5.039999999999999
 41
695.4150224258111
 71
     1
 72
     5
  1
{ス　ト　ロ　-　ク}
 73
     1
 44
1.0
1001
ACAD
1000
ACAD_MTEXT_DEFINED_HEIGHT_BEGIN
1070
    46
1040
6.3
1000
ACAD_MTEXT_DEFINED_HEIGHT_END
  0
MTEXT
  5
529
330
1E
100
AcDbEntity
  8
ﾚｲﾔ1
100
AcDbMText
 10
1686.826160192222
 20
985.521733947402
 30
0.0
 40
5.039999999999999
 41
695.4150224258116
 71
     1
 72
     5
  1
受　圧　面　積
 73
     1
 44
1.0
  0
MTEXT
  5
52A
330
1E
100
AcDbEntity
  8
ﾚｲﾔ1
100
AcDbMText
 10
1686.692129850539
 20
1024.429370421568
 30
0.0
 40
5.039999999999999
 41
695.4150224258116
 71
     1
 72
     5
  1
機　械　高　さ
 73
     1
 44
1.0
  0
TEXT
  5
52B
330
1E
100
AcDbEntity
  8
ﾚｲﾔ1
100
AcDbText
 10
1818.010720562062
 20
1032.560789820204
 30
0.0
 40
4.8
  1
KN
 50
360.0
100
AcDbText
  0
TEXT
  5
52C
330
1E
100
AcDbEntity
  8
ﾚｲﾔ1
100
AcDbText
 10
1786.27367628339
 20
1032.705259046914
 30
0.0
 40
4.8
  1
200
 50
360.0
100
AcDbText
  0
TEXT
  5
52D
330
1E
100
AcDbEntity
  8
ﾚｲﾔ1
100
AcDbText
 10
1818.010720562062
 20
1019.470712192101
 30
0.0
 40
4.8
  1
mm
 50
360.0
100
AcDbText
  0
MTEXT
  5
52E
330
1E
100
AcDbEntity
  8
ﾚｲﾔ1
100
AcDbMText
 10
1784.870700873493
 20
959.0601912911293
 30
0.0
 40
4.8
 41
0.0
 71
     1
 72
     5
  1
{約}
 73
     1
 44
1.0
1001
ACAD
1000
ACAD_MTEXT_DEFINED_HEIGHT_BEGIN
1070
    46
1040
6.0
1000
ACAD_MTEXT_DEFINED_HEIGHT_END
  0
MTEXT
  5
52F
330
1E
100
AcDbEntity
  8
ﾚｲﾔ1
100
AcDbMText
 10
1786.167809881468
 20
971.7262868830246
 30
0.0
 40
4.8
 41
0.0
 71
     1
 72
     5
  1
{Φ}
 73
     1
 44
1.0
1001
ACAD
1000
ACAD_MTEXT_DEFINED_HEIGHT_BEGIN
1070
    46
1040
12.0
1000
ACAD_MTEXT_DEFINED_HEIGHT_END
  0
TEXT
  5
530
330
1E
100
AcDbEntity
  8
ﾚｲﾔ1
100
AcDbText
 10
1814.808948251011
 20
980.1313605048006
 30
0.0
 40
4.8
  1
cm2
 50
360.0
100
AcDbText
  0
TEXT
  5
531
330
1E
100
AcDbEntity
  8
ﾚｲﾔ1
100
AcDbText
 10
1818.010720562062
 20
1006.433192364803
 30
0.0
 40
4.8
  1
mm
 50
360.0
100
AcDbText
  0
TEXT
  5
532
330
1E
100
AcDbEntity
  8
ﾚｲﾔ1
100
AcDbText
 10
1818.010720562062
 20
954.5338579137122
 30
0.0
 40
4.8
  1
Kg
 50
360.0
100
AcDbText
  0
TEXT
  5
533
330
1E
100
AcDbEntity
  8
ﾚｲﾔ1
100
AcDbText
 10
1814.808948251011
 20
993.7291904866008
 30
0.0
 40
4.8
  1
Mpa
 50
360.0
100
AcDbText
  0
TEXT
  5
534
330
1E
100
AcDbEntity
  8
ﾚｲﾔ1
100
AcDbText
 10
1818.010720562062
 20
967.9270291539153
 30
0.0
 40
4.8
  1
mm
 50
360.0
100
AcDbText
  0
TEXT
  5
535
330
1E
100
AcDbEntity
  8
ﾚｲﾔ1
100
AcDbText
 10
1786.27367628339
 20
1019.419868809195
 30
0.0
 40
4.8
  1
295
 50
360.0
100
AcDbText
  0
TEXT
  5
536
330
1E
100
AcDbEntity
  8
ﾚｲﾔ1
100
AcDbText
 10
1786.27367628339
 20
1006.430215758296
 30
0.0
 40
4.8
  1
125
 50
360.0
100
AcDbText
  0
TEXT
  5
537
330
1E
100
AcDbEntity
  8
ﾚｲﾔ1
100
AcDbText
 10
1786.27367628339
 20
993.300721944893
 30
0.0
 40
4.8
  1
60.1
 50
360.0
100
AcDbText
  0
TEXT
  5
538
330
1E
100
AcDbEntity
  8
ﾚｲﾔ1
100
AcDbText
 10
1786.27367628339
 20
980.6373640065324
 30
0.0
 40
4.8
  1
33.2
 50
360.0
100
AcDbText
  0
TEXT
  5
539
330
1E
100
AcDbEntity
  8
ﾚｲﾔ1
100
AcDbText
 10
1791.011147150828
 20
967.3866117778477
 30
0.0
 40
4.8
  1
57
 50
360.0
100
AcDbText
  0
TEXT
  5
53A
330
1E
100
AcDbEntity
  8
ﾚｲﾔ1
100
AcDbText
 10
1792.263883289334
 20
954.1937589802092
 30
0.0
 40
4.8
  1
11
 50
360.0
100
AcDbText
  0
LINE
  5
53B
330
1E
100
AcDbEntity
  8
ﾚｲﾔ1
100
AcDbLine
 10
1686.181944179826
 20
1043.970151127806
 30
0.0
 11
1704.541479974625
 21
1043.964263607027
 31
0.0
  0
MTEXT
  5
53C
330
1E
100
AcDbEntity
  8
ﾚｲﾔ1
100
AcDbMText
 10
1687.150472927664
 20
1048.746298435355
 30
0.0
 40
4.319999999999996
 41
695.4150224258116
 71
     1
 72
     5
  1
仕  様
 73
     1
 44
1.0
  0
LINE
  5
53D
330
1E
100
AcDbEntity
  8
図面枠
  6
Continuous
100
AcDbLine
 10
1845.371653354785
 20
1061.292343787966
 30
0.0
 11
1845.371653354785
 21
617.40885782058
 31
0.0
  0
LINE
  5
53E
330
1E
100
AcDbEntity
  8
図面枠
  6
Continuous
100
AcDbLine
 10
1850.377858083707
 20
1066.298548516935
 30
0.0
 11
1850.377858083707
 21
612.4026530916115
 31
0.0
  0
TEXT
  5
5E6
102
{ACAD_REACTORS
330
5E8
102
}
330
1E
100
AcDbEntity
  8
図面枠
100
AcDbText
 10
1727.987545164838
 20
647.9674925664302
 30
0.0
 40
6.920577417308297
  1
名
100
AcDbText
  0
TEXT
  5
5E7
102
{ACAD_REACTORS
330
5E8
102
}
330
1E
100
AcDbEntity
  8
図面枠
100
AcDbText
 10
1727.987545164838
 20
637.0712507292851
 30
0.0
 40
6.920577417308297
  1
称
100
AcDbText
  0
ENDSEC
  0
SECTION
  2
OBJECTS
  0
DICTIONARY
  5
C
330
0
100
AcDbDictionary
281
     1
  3
ACAD_DETAILVIEWSTYLE
350
5A0
  3
ACAD_GROUP
350
D
  3
ACAD_LAYOUT
350
19
  3
ACAD_MLINESTYLE
350
16
  3
ACAD_PLOTSETTINGS
350
18
  3
ACAD_PLOTSTYLENAME
350
E
  3
ACAD_SCALELIST
350
3B9
  3
ACAD_SECTIONVIEWSTYLE
350
5A1
  3
AcDbVariableDictionary
350
3FE
  3
APPDATA
350
474
  3
DWGPROPS
350
5ED
  0
DICTIONARY
  5
4EA
330
2
100
AcDbDictionary
280
     1
281
     1
  3
ACAD_LAYERSTATES
360
4EB
  0
DICTIONARY
  5
3E1
330
10
100
AcDbDictionary
280
     1
281
     1
  3
ADSK_XREC_LAYER_RECONCILED
360
3E2
  0
DICTIONARY
  5
3E3
330
3B
100
AcDbDictionary
280
     1
281
     1
  3
ADSK_XREC_LAYER_RECONCILED
360
3E4
  0
DICTIONARY
  5
3E5
330
3D
100
AcDbDictionary
280
     1
281
     1
  3
ADSK_XREC_LAYER_RECONCILED
360
3E6
  0
DICTIONARY
  5
3E7
330
282
100
AcDbDictionary
280
     1
281
     1
  3
ADSK_XREC_LAYER_RECONCILED
360
3E8
  0
DICTIONARY
  5
3E9
330
283
100
AcDbDictionary
280
     1
281
     1
  3
ADSK_XREC_LAYER_RECONCILED
360
3EA
  0
DICTIONARY
  5
480
330
47F
100
AcDbDictionary
280
     1
281
     1
  3
ADSK_XREC_LAYER_RECONCILED
360
481
  0
DICTIONARY
  5
5A3
330
1E
100
AcDbDictionary
280
     1
281
     1
  3
DIM_BOUNDING_BOXES_V1
360
5A4
  0
DICTIONARY
  5
5A0
102
{ACAD_REACTORS
330
C
102
}
330
C
100
AcDbDictionary
281
     1
  0
DICTIONARY
  5
D
102
{ACAD_REACTORS
330
C
102
}
330
C
100
AcDbDictionary
281
     1
  3
*A1
350
5E8
  0
DICTIONARY
  5
19
102
{ACAD_REACTORS
330
C
102
}
330
C
100
AcDbDictionary
281
     1
  3
Model
350
21
  3
ﾚｲｱｳﾄ1
350
1D
  0
DICTIONARY
  5
16
102
{ACAD_REACTORS
330
C
102
}
330
C
100
AcDbDictionary
281
     1
  3
Standard
350
17
  0
DICTIONARY
  5
18
102
{ACAD_REACTORS
330
C
102
}
330
C
100
AcDbDictionary
281
     1
  0
ACDBDICTIONARYWDFLT
  5
E
102
{ACAD_REACTORS
330
C
102
}
330
C
100
AcDbDictionary
281
     1
  3
Normal
350
F
100
AcDbDictionaryWithDefault
340
F
  0
DICTIONARY
  5
3B9
102
{ACAD_REACTORS
330
C
102
}
330
C
100
AcDbDictionary
281
     1
  3
A0
350
3BA
  3
A1
350
3BB
  3
A2
350
3BC
  3
A3
350
3BD
  3
A4
350
3BE
  3
A5
350
3BF
  3
A6
350
3C0
  3
A7
350
3C1
  3
A8
350
3C2
  3
A9
350
3C3
  3
B0
350
3C4
  3
B1
350
3C5
  3
B2
350
3C6
  3
B3
350
3C7
  3
B4
350
3C8
  3
B5
350
3C9
  3
B6
350
3CA
  3
B7
350
3CB
  3
B8
350
3CC
  3
B9
350
3CD
  3
C0
350
3CE
  3
C1
350
3CF
  3
C2
350
3D0
  3
C3
350
3D1
  3
C4
350
3D2
  3
C5
350
3D3
  3
C6
350
3D4
  3
C7
350
3D5
  3
C8
350
3D6
  3
C9
350
3D7
  3
D0
350
3D8
  3
D1
350
3D9
  3
D2
350
3DA
  0
DICTIONARY
  5
5A1
102
{ACAD_REACTORS
330
C
102
}
330
C
100
AcDbDictionary
281
     1
  0
DICTIONARY
  5
3FE
102
{ACAD_REACTORS
330
C
102
}
330
C
100
AcDbDictionary
281
     1
  3
DIMASSOC
350
404
  3
INDEXCTL
350
403
  3
PROJECTNAME
350
460
  3
SORTENTS
350
402
  0
DICTIONARY
  5
474
102
{ACAD_REACTORS
330
C
102
}
330
C
100
AcDbDictionary
281
     1
  0
XRECORD
  5
5ED
102
{ACAD_REACTORS
330
C
102
}
330
C
100
AcDbXrecord
280
     1
  1
DWGPROPS COOKIE
  2

  3

  4

  6

  7

  8
Hiroki Noike
  9

300
=
301
=
302
=
303
=
304
=
305
=
306
=
307
=
308
=
309
=
 40
0.0
 41
2452516.307351065
 42
2459744.19500382
  1

 90
        0
  0
DICTIONARY
  5
4EB
102
{ACAD_REACTORS
330
4EA
102
}
330
4EA
100
AcDbDictionary
281
     1
  0
XRECORD
  5
3E2
102
{ACAD_REACTORS
330
3E1
102
}
330
3E1
100
AcDbXrecord
280
     1
290
     1
  0
XRECORD
  5
3E4
102
{ACAD_REACTORS
330
3E3
102
}
330
3E3
100
AcDbXrecord
280
     1
290
     1
  0
XRECORD
  5
3E6
102
{ACAD_REACTORS
330
3E5
102
}
330
3E5
100
AcDbXrecord
280
     1
290
     1
  0
XRECORD
  5
3E8
102
{ACAD_REACTORS
330
3E7
102
}
330
3E7
100
AcDbXrecord
280
     1
290
     1
  0
XRECORD
  5
3EA
102
{ACAD_REACTORS
330
3E9
102
}
330
3E9
100
AcDbXrecord
280
     1
290
     1
  0
XRECORD
  5
481
102
{ACAD_REACTORS
330
480
102
}
330
480
100
AcDbXrecord
280
     1
290
     1
  0
DICTIONARY
  5
5A4
102
{ACAD_REACTORS
330
5A3
102
}
330
5A3
100
AcDbDictionary
281
     1
  0
GROUP
  5
5E8
102
{ACAD_REACTORS
330
D
102
}
330
D
100
AcDbGroup
300

 70
     1
 71
     1
340
5E6
340
5E7
  0
LAYOUT
  5
21
102
{ACAD_REACTORS
330
19
102
}
330
19
100
AcDbPlotSettings
  1

  2
none_device
  4
Letter_(8.50_x_11.00_Inches)
  6

 40
6.349999904632568
 41
6.349999904632568
 42
6.350006103515625
 43
6.350006103515625
 44
215.8999938964844
 45
279.3999938964844
 46
0.0
 47
0.0
 48
0.0
 49
0.0
140
0.0
141
0.0
142
1.0
143
1.0
 70
 11952
 72
     0
 73
     1
 74
     0
  7

 75
     0
147
1.0
148
1003.129468071078
149
-8661.060865103784
100
AcDbLayout
  1
Model
 70
     1
 71
     0
 10
0.0
 20
0.0
 11
12.0
 21
9.0
 12
0.0
 22
0.0
 32
0.0
 14
1175.720386501227
 24
583.2423716607747
 34
0.0
 15
1888.530560915231
 25
1087.242411643012
 35
0.0
146
0.0
 13
0.0
 23
0.0
 33
0.0
 16
1.0
 26
0.0
 36
0.0
 17
0.0
 27
1.0
 37
0.0
 76
     0
330
1E
331
461
  0
LAYOUT
  5
1D
102
{ACAD_REACTORS
330
19
102
}
330
19
100
AcDbPlotSettings
  1

  2
\\SOUKO01\倉庫プリンタ
  4

  6

 40
0.0
 41
0.0
 42
0.0
 43
0.0
 44
0.0
 45
0.0
 46
0.0
 47
0.0
 48
0.0
 49
0.0
140
0.0
141
0.0
142
1.0
143
1.0
 70
   688
 72
     0
 73
     0
 74
     5
  7

 75
    16
147
1.0
148
0.0
149
0.0
100
AcDbLayout
  1
ﾚｲｱｳﾄ1
 70
     1
 71
     1
 10
0.0
 20
0.0
 11
12.0
 21
9.0
 12
0.0
 22
0.0
 32
0.0
 14
1.000000000000000E+20
 24
1.000000000000000E+20
 34
1.000000000000000E+20
 15
-1.000000000000000E+20
 25
-1.000000000000000E+20
 35
-1.000000000000000E+20
146
0.0
 13
0.0
 23
0.0
 33
0.0
 16
1.0
 26
0.0
 36
0.0
 17
0.0
 27
1.0
 37
0.0
 76
     0
330
1A
  0
MLINESTYLE
  5
17
102
{ACAD_REACTORS
330
16
102
}
330
16
100
AcDbMlineStyle
  2
STANDARD
 70
     0
  3

 62
   256
 51
90.0
 52
90.0
 71
     2
 49
0.5
 62
   256
  6
BYLAYER
 49
-0.5
 62
   256
  6
BYLAYER
  0
ACDBPLACEHOLDER
  5
F
102
{ACAD_REACTORS
330
E
102
}
330
E
  0
SCALE
  5
3BA
102
{ACAD_REACTORS
330
3B9
102
}
330
3B9
100
AcDbScale
 70
     0
300
1:1
140
1.0
141
1.0
290
     1
1001
ACAD
1000
AcRTDxfName
1000
SCALE
  0
SCALE
  5
3BB
102
{ACAD_REACTORS
330
3B9
102
}
330
3B9
100
AcDbScale
 70
     0
300
1:2
140
1.0
141
2.0
290
     0
1001
ACAD
1000
AcRTDxfName
1000
SCALE
  0
SCALE
  5
3BC
102
{ACAD_REACTORS
330
3B9
102
}
330
3B9
100
AcDbScale
 70
     0
300
1:4
140
1.0
141
4.0
290
     0
1001
ACAD
1000
AcRTDxfName
1000
SCALE
  0
SCALE
  5
3BD
102
{ACAD_REACTORS
330
3B9
102
}
330
3B9
100
AcDbScale
 70
     0
300
1:5
140
1.0
141
5.0
290
     0
1001
ACAD
1000
AcRTDxfName
1000
SCALE
  0
SCALE
  5
3BE
102
{ACAD_REACTORS
330
3B9
102
}
330
3B9
100
AcDbScale
 70
     0
300
1:8
140
1.0
141
8.0
290
     0
1001
ACAD
1000
AcRTDxfName
1000
SCALE
  0
SCALE
  5
3BF
102
{ACAD_REACTORS
330
3B9
102
}
330
3B9
100
AcDbScale
 70
     0
300
1:10
140
1.0
141
10.0
290
     0
1001
ACAD
1000
AcRTDxfName
1000
SCALE
  0
SCALE
  5
3C0
102
{ACAD_REACTORS
330
3B9
102
}
330
3B9
100
AcDbScale
 70
     0
300
1:16
140
1.0
141
16.0
290
     0
1001
ACAD
1000
AcRTDxfName
1000
SCALE
  0
SCALE
  5
3C1
102
{ACAD_REACTORS
330
3B9
102
}
330
3B9
100
AcDbScale
 70
     0
300
1:20
140
1.0
141
20.0
290
     0
1001
ACAD
1000
AcRTDxfName
1000
SCALE
  0
SCALE
  5
3C2
102
{ACAD_REACTORS
330
3B9
102
}
330
3B9
100
AcDbScale
 70
     0
300
1:30
140
1.0
141
30.0
290
     0
1001
ACAD
1000
AcRTDxfName
1000
SCALE
  0
SCALE
  5
3C3
102
{ACAD_REACTORS
330
3B9
102
}
330
3B9
100
AcDbScale
 70
     0
300
1:40
140
1.0
141
40.0
290
     0
1001
ACAD
1000
AcRTDxfName
1000
SCALE
  0
SCALE
  5
3C4
102
{ACAD_REACTORS
330
3B9
102
}
330
3B9
100
AcDbScale
 70
     0
300
1:50
140
1.0
141
50.0
290
     0
1001
ACAD
1000
AcRTDxfName
1000
SCALE
  0
SCALE
  5
3C5
102
{ACAD_REACTORS
330
3B9
102
}
330
3B9
100
AcDbScale
 70
     0
300
1:100
140
1.0
141
100.0
290
     0
1001
ACAD
1000
AcRTDxfName
1000
SCALE
  0
SCALE
  5
3C6
102
{ACAD_REACTORS
330
3B9
102
}
330
3B9
100
AcDbScale
 70
     0
300
2:1
140
2.0
141
1.0
290
     0
1001
ACAD
1000
AcRTDxfName
1000
SCALE
  0
SCALE
  5
3C7
102
{ACAD_REACTORS
330
3B9
102
}
330
3B9
100
AcDbScale
 70
     0
300
4:1
140
4.0
141
1.0
290
     0
1001
ACAD
1000
AcRTDxfName
1000
SCALE
  0
SCALE
  5
3C8
102
{ACAD_REACTORS
330
3B9
102
}
330
3B9
100
AcDbScale
 70
     0
300
8:1
140
8.0
141
1.0
290
     0
1001
ACAD
1000
AcRTDxfName
1000
SCALE
  0
SCALE
  5
3C9
102
{ACAD_REACTORS
330
3B9
102
}
330
3B9
100
AcDbScale
 70
     0
300
10:1
140
10.0
141
1.0
290
     0
1001
ACAD
1000
AcRTDxfName
1000
SCALE
  0
SCALE
  5
3CA
102
{ACAD_REACTORS
330
3B9
102
}
330
3B9
100
AcDbScale
 70
     0
300
100:1
140
100.0
141
1.0
290
     0
1001
ACAD
1000
AcRTDxfName
1000
SCALE
  0
SCALE
  5
3CB
102
{ACAD_REACTORS
330
3B9
102
}
330
3B9
100
AcDbScale
 70
     0
300
1/128" = 1'-0"
140
0.0078125
141
12.0
290
     0
1001
ACAD
1000
AcRTDxfName
1000
SCALE
  0
SCALE
  5
3CC
102
{ACAD_REACTORS
330
3B9
102
}
330
3B9
100
AcDbScale
 70
     0
300
1/64" = 1'-0"
140
0.015625
141
12.0
290
     0
1001
ACAD
1000
AcRTDxfName
1000
SCALE
  0
SCALE
  5
3CD
102
{ACAD_REACTORS
330
3B9
102
}
330
3B9
100
AcDbScale
 70
     0
300
1/32" = 1'-0"
140
0.03125
141
12.0
290
     0
1001
ACAD
1000
AcRTDxfName
1000
SCALE
  0
SCALE
  5
3CE
102
{ACAD_REACTORS
330
3B9
102
}
330
3B9
100
AcDbScale
 70
     0
300
1/16" = 1'-0"
140
0.0625
141
12.0
290
     0
1001
ACAD
1000
AcRTDxfName
1000
SCALE
  0
SCALE
  5
3CF
102
{ACAD_REACTORS
330
3B9
102
}
330
3B9
100
AcDbScale
 70
     0
300
3/32" = 1'-0"
140
0.09375
141
12.0
290
     0
1001
ACAD
1000
AcRTDxfName
1000
SCALE
  0
SCALE
  5
3D0
102
{ACAD_REACTORS
330
3B9
102
}
330
3B9
100
AcDbScale
 70
     0
300
1/8" = 1'-0"
140
0.125
141
12.0
290
     0
1001
ACAD
1000
AcRTDxfName
1000
SCALE
  0
SCALE
  5
3D1
102
{ACAD_REACTORS
330
3B9
102
}
330
3B9
100
AcDbScale
 70
     0
300
3/16" = 1'-0"
140
0.1875
141
12.0
290
     0
1001
ACAD
1000
AcRTDxfName
1000
SCALE
  0
SCALE
  5
3D2
102
{ACAD_REACTORS
330
3B9
102
}
330
3B9
100
AcDbScale
 70
     0
300
1/4" = 1'-0"
140
0.25
141
12.0
290
     0
1001
ACAD
1000
AcRTDxfName
1000
SCALE
  0
SCALE
  5
3D3
102
{ACAD_REACTORS
330
3B9
102
}
330
3B9
100
AcDbScale
 70
     0
300
3/8" = 1'-0"
140
0.375
141
12.0
290
     0
1001
ACAD
1000
AcRTDxfName
1000
SCALE
  0
SCALE
  5
3D4
102
{ACAD_REACTORS
330
3B9
102
}
330
3B9
100
AcDbScale
 70
     0
300
1/2" = 1'-0"
140
0.5
141
12.0
290
     0
1001
ACAD
1000
AcRTDxfName
1000
SCALE
  0
SCALE
  5
3D5
102
{ACAD_REACTORS
330
3B9
102
}
330
3B9
100
AcDbScale
 70
     0
300
3/4" = 1'-0"
140
0.75
141
12.0
290
     0
1001
ACAD
1000
AcRTDxfName
1000
SCALE
  0
SCALE
  5
3D6
102
{ACAD_REACTORS
330
3B9
102
}
330
3B9
100
AcDbScale
 70
     0
300
1" = 1'-0"
140
1.0
141
12.0
290
     0
1001
ACAD
1000
AcRTDxfName
1000
SCALE
  0
SCALE
  5
3D7
102
{ACAD_REACTORS
330
3B9
102
}
330
3B9
100
AcDbScale
 70
     0
300
1-1/2" = 1'-0"
140
1.5
141
12.0
290
     0
1001
ACAD
1000
AcRTDxfName
1000
SCALE
  0
SCALE
  5
3D8
102
{ACAD_REACTORS
330
3B9
102
}
330
3B9
100
AcDbScale
 70
     0
300
3" = 1'-0"
140
3.0
141
12.0
290
     0
1001
ACAD
1000
AcRTDxfName
1000
SCALE
  0
SCALE
  5
3D9
102
{ACAD_REACTORS
330
3B9
102
}
330
3B9
100
AcDbScale
 70
     0
300
6" = 1'-0"
140
6.0
141
12.0
290
     0
1001
ACAD
1000
AcRTDxfName
1000
SCALE
  0
SCALE
  5
3DA
102
{ACAD_REACTORS
330
3B9
102
}
330
3B9
100
AcDbScale
 70
     0
300
1'-0" = 1'-0"
140
12.0
141
12.0
290
     0
1001
ACAD
1000
AcRTDxfName
1000
SCALE
  0
DICTIONARYVAR
  5
404
102
{ACAD_REACTORS
330
3FE
102
}
330
3FE
100
DictionaryVariables
280
     0
  1
1
  0
DICTIONARYVAR
  5
403
102
{ACAD_REACTORS
330
3FE
102
}
330
3FE
100
DictionaryVariables
280
     0
  1
0
  0
DICTIONARYVAR
  5
460
102
{ACAD_REACTORS
330
3FE
102
}
330
3FE
100
DictionaryVariables
280
     0
  1

  0
DICTIONARYVAR
  5
402
102
{ACAD_REACTORS
330
3FE
102
}
330
3FE
100
DictionaryVariables
280
     0
  1
127
  0
ENDSEC
  0
EOF
