  0
SECTION
  2
HEADER
  9
$ACADVER
  1
AC1015
  9
$ACADMAINTVER
 70
    20
  9
$DWGCODEPAGE
  3
ANSI_932
  9
$INSBASE
 10
0.0
 20
0.0
 30
0.0
  9
$EXTMIN
 10
-630.0
 20
-445.5
 30
0.0
  9
$EXTMAX
 10
630.0
 20
445.5
 30
0.0
  9
$LIMMIN
 10
0.0
 20
0.0
  9
$LIMMAX
 10
12.0
 20
9.0
  9
$ORTHOMODE
 70
     0
  9
$REGENMODE
 70
     1
  9
$FILLMODE
 70
     1
  9
$QTEXTMODE
 70
     0
  9
$MIRRTEXT
 70
     1
  9
$LTSCALE
 40
1.0
  9
$ATTMODE
 70
     1
  9
$TEXTSIZE
 40
3.0
  9
$TRACEWID
 40
0.05
  9
$TEXTSTYLE
  7
STANDARD
  9
$CLAYER
  8
ﾚｲﾔ1
  9
$CELTYPE
  6
ByLayer
  9
$CECOLOR
 62
   256
  9
$CELTSCALE
 40
1.0
  9
$DISPSILH
 70
     0
  9
$DIMSCALE
 40
1.0
  9
$DIMASZ
 40
0.18
  9
$DIMEXO
 40
0.0625
  9
$DIMDLI
 40
0.38
  9
$DIMRND
 40
0.0
  9
$DIMDLE
 40
0.0
  9
$DIMEXE
 40
0.18
  9
$DIMTP
 40
0.0
  9
$DIMTM
 40
0.0
  9
$DIMTXT
 40
0.18
  9
$DIMCEN
 40
0.09
  9
$DIMTSZ
 40
0.0
  9
$DIMTOL
 70
     0
  9
$DIMLIM
 70
     0
  9
$DIMTIH
 70
     1
  9
$DIMTOH
 70
     1
  9
$DIMSE1
 70
     0
  9
$DIMSE2
 70
     0
  9
$DIMTAD
 70
     0
  9
$DIMZIN
 70
     0
  9
$DIMBLK
  1

  9
$DIMASO
 70
     1
  9
$DIMSHO
 70
     1
  9
$DIMPOST
  1

  9
$DIMAPOST
  1

  9
$DIMALT
 70
     0
  9
$DIMALTD
 70
     2
  9
$DIMALTF
 40
25.4
  9
$DIMLFAC
 40
1.0
  9
$DIMTOFL
 70
     0
  9
$DIMTVP
 40
0.0
  9
$DIMTIX
 70
     0
  9
$DIMSOXD
 70
     0
  9
$DIMSAH
 70
     0
  9
$DIMBLK1
  1

  9
$DIMBLK2
  1

  9
$DIMSTYLE
  2
Standard
  9
$DIMCLRD
 70
     0
  9
$DIMCLRE
 70
     0
  9
$DIMCLRT
 70
     0
  9
$DIMTFAC
 40
1.0
  9
$DIMGAP
 40
0.09
  9
$DIMJUST
 70
     0
  9
$DIMSD1
 70
     0
  9
$DIMSD2
 70
     0
  9
$DIMTOLJ
 70
     1
  9
$DIMTZIN
 70
     0
  9
$DIMALTZ
 70
     0
  9
$DIMALTTZ
 70
     0
  9
$DIMUPT
 70
     0
  9
$DIMDEC
 70
     4
  9
$DIMTDEC
 70
     4
  9
$DIMALTU
 70
     2
  9
$DIMALTTD
 70
     2
  9
$DIMTXSTY
  7
STANDARD
  9
$DIMAUNIT
 70
     0
  9
$DIMADEC
 70
     0
  9
$DIMALTRND
 40
0.0
  9
$DIMAZIN
 70
     0
  9
$DIMDSEP
 70
    46
  9
$DIMATFIT
 70
     3
  9
$DIMFRAC
 70
     0
  9
$DIMLDRBLK
  1

  9
$DIMLUNIT
 70
     2
  9
$DIMLWD
 70
    -2
  9
$DIMLWE
 70
    -2
  9
$DIMTMOVE
 70
     2
  9
$LUNITS
 70
     2
  9
$LUPREC
 70
     4
  9
$SKETCHINC
 40
0.1
  9
$FILLETRAD
 40
0.0
  9
$AUNITS
 70
     0
  9
$AUPREC
 70
     0
  9
$MENU
  1
acad
  9
$ELEVATION
 40
0.0
  9
$PELEVATION
 40
0.0
  9
$THICKNESS
 40
0.0
  9
$LIMCHECK
 70
     0
  9
$CHAMFERA
 40
0.0
  9
$CHAMFERB
 40
0.0
  9
$CHAMFERC
 40
0.0
  9
$CHAMFERD
 40
0.0
  9
$SKPOLY
 70
     0
  9
$TDCREATE
 40
2449944.925517361
  9
$TDUCREATE
 40
2449944.550517361
  9
$TDUPDATE
 40
2455342.528038009
  9
$TDUUPDATE
 40
2455342.153038009
  9
$TDINDWG
 40
0.2387627315
  9
$TDUSRTIMER
 40
0.2387627315
  9
$USRTIMER
 70
     1
  9
$ANGBASE
 50
0.0
  9
$ANGDIR
 70
     0
  9
$PDMODE
 70
     0
  9
$PDSIZE
 40
4.5
  9
$PLINEWID
 40
0.0
  9
$SPLFRAME
 70
     0
  9
$SPLINETYPE
 70
     6
  9
$SPLINESEGS
 70
     8
  9
$HANDSEED
  5
F3D
  9
$SURFTAB1
 70
     6
  9
$SURFTAB2
 70
     6
  9
$SURFTYPE
 70
     6
  9
$SURFU
 70
     6
  9
$SURFV
 70
     6
  9
$UCSBASE
  2

  9
$UCSNAME
  2

  9
$UCSORG
 10
0.0
 20
0.0
 30
0.0
  9
$UCSXDIR
 10
1.0
 20
0.0
 30
0.0
  9
$UCSYDIR
 10
0.0
 20
1.0
 30
0.0
  9
$UCSORTHOREF
  2

  9
$UCSORTHOVIEW
 70
     0
  9
$UCSORGTOP
 10
0.0
 20
0.0
 30
0.0
  9
$UCSORGBOTTOM
 10
0.0
 20
0.0
 30
0.0
  9
$UCSORGLEFT
 10
0.0
 20
0.0
 30
0.0
  9
$UCSORGRIGHT
 10
0.0
 20
0.0
 30
0.0
  9
$UCSORGFRONT
 10
0.0
 20
0.0
 30
0.0
  9
$UCSORGBACK
 10
0.0
 20
0.0
 30
0.0
  9
$PUCSBASE
  2

  9
$PUCSNAME
  2

  9
$PUCSORG
 10
0.0
 20
0.0
 30
0.0
  9
$PUCSXDIR
 10
1.0
 20
0.0
 30
0.0
  9
$PUCSYDIR
 10
0.0
 20
1.0
 30
0.0
  9
$PUCSORTHOREF
  2

  9
$PUCSORTHOVIEW
 70
     0
  9
$PUCSORGTOP
 10
0.0
 20
0.0
 30
0.0
  9
$PUCSORGBOTTOM
 10
0.0
 20
0.0
 30
0.0
  9
$PUCSORGLEFT
 10
0.0
 20
0.0
 30
0.0
  9
$PUCSORGRIGHT
 10
0.0
 20
0.0
 30
0.0
  9
$PUCSORGFRONT
 10
0.0
 20
0.0
 30
0.0
  9
$PUCSORGBACK
 10
0.0
 20
0.0
 30
0.0
  9
$USERI1
 70
     0
  9
$USERI2
 70
     0
  9
$USERI3
 70
     0
  9
$USERI4
 70
     0
  9
$USERI5
 70
     0
  9
$USERR1
 40
0.0
  9
$USERR2
 40
0.0
  9
$USERR3
 40
0.0
  9
$USERR4
 40
0.0
  9
$USERR5
 40
0.0
  9
$WORLDVIEW
 70
     1
  9
$SHADEDGE
 70
     3
  9
$SHADEDIF
 70
    70
  9
$TILEMODE
 70
     1
  9
$MAXACTVP
 70
    16
  9
$PINSBASE
 10
0.0
 20
0.0
 30
0.0
  9
$PLIMCHECK
 70
     0
  9
$PEXTMIN
 10
0.0
 20
0.0
 30
0.0
  9
$PEXTMAX
 10
0.0
 20
0.0
 30
0.0
  9
$PLIMMIN
 10
0.0
 20
0.0
  9
$PLIMMAX
 10
0.0
 20
0.0
  9
$UNITMODE
 70
     0
  9
$VISRETAIN
 70
     0
  9
$PLINEGEN
 70
     0
  9
$PSLTSCALE
 70
     1
  9
$TREEDEPTH
 70
  3020
  9
$CMLSTYLE
  2
Standard
  9
$CMLJUST
 70
     0
  9
$CMLSCALE
 40
1.0
  9
$PROXYGRAPHICS
 70
     1
  9
$MEASUREMENT
 70
     0
  9
$CELWEIGHT
370
    -1
  9
$ENDCAPS
280
     0
  9
$JOINSTYLE
280
     0
  9
$LWDISPLAY
290
     0
  9
$INSUNITS
 70
     0
  9
$HYPERLINKBASE
  1

  9
$STYLESHEET
  1

  9
$XEDIT
290
     1
  9
$CEPSNTYPE
380
     0
  9
$PSTYLEMODE
290
     1
  9
$FINGERPRINTGUID
  2
{EDA3CDD7-4F17-4EB6-9700-FAA796D1C6B4}
  9
$VERSIONGUID
  2
{68F62793-C7B9-44EC-A183-FC2E30B7721C}
  9
$EXTNAMES
290
     1
  9
$PSVPSCALE
 40
0.0
  9
$OLESTARTUP
290
     0
  0
ENDSEC
  0
SECTION
  2
CLASSES
  0
CLASS
  1
ACDBDICTIONARYWDFLT
  2
AcDbDictionaryWithDefault
  3
ObjectDBX Classes
 90
        0
280
     0
281
     0
  0
CLASS
  1
ACDBPLACEHOLDER
  2
AcDbPlaceHolder
  3
ObjectDBX Classes
 90
        0
280
     0
281
     0
  0
CLASS
  1
LAYOUT
  2
AcDbLayout
  3
ObjectDBX Classes
 90
        0
280
     0
281
     0
  0
CLASS
  1
DICTIONARYVAR
  2
AcDbDictionaryVar
  3
ObjectDBX Classes
 90
        0
280
     0
281
     0
  0
ENDSEC
  0
SECTION
  2
TABLES
  0
TABLE
  2
VPORT
  5
8
330
0
100
AcDbSymbolTable
 70
     2
  0
VPORT
  5
F31
330
8
100
AcDbSymbolTableRecord
100
AcDbViewportTableRecord
  2
*Active
 70
     0
 10
0.0
 20
0.0
 11
1.0
 21
1.0
 12
-25.49821691543252
 22
37.59570272064764
 13
0.0
 23
0.0
 14
1.0
 24
1.0
 15
0.0
 25
0.0
 16
0.0
 26
0.0
 36
1.0
 17
0.0
 27
0.0
 37
0.0
 40
1130.881394433114
 41
1.530456852791878
 42
50.0
 43
0.0
 44
0.0
 50
0.0
 51
0.0
 71
     0
 72
   100
 73
     1
 74
     0
 75
     0
 76
     0
 77
     0
 78
     0
281
     0
 65
     1
110
0.0
120
0.0
130
0.0
111
1.0
121
0.0
131
0.0
112
0.0
122
1.0
132
0.0
 79
     0
146
0.0
  0
ENDTAB
  0
TABLE
  2
LTYPE
  5
5
330
0
100
AcDbSymbolTable
 70
    15
  0
LTYPE
  5
13
330
5
100
AcDbSymbolTableRecord
100
AcDbLinetypeTableRecord
  2
ByBlock
 70
     0
  3

 72
    65
 73
     0
 40
0.0
  0
LTYPE
  5
14
330
5
100
AcDbSymbolTableRecord
100
AcDbLinetypeTableRecord
  2
ByLayer
 70
     0
  3

 72
    65
 73
     0
 40
0.0
  0
LTYPE
  5
15
330
5
100
AcDbSymbolTableRecord
100
AcDbLinetypeTableRecord
  2
CONTINUOUS
 70
     0
  3
実線
 72
    65
 73
     0
 40
0.0
  0
LTYPE
  5
3D
330
5
100
AcDbSymbolTableRecord
100
AcDbLinetypeTableRecord
  2
DASHED
 70
     0
  3
破線A
 72
    65
 73
     2
 40
22.5
 49
15.0
 74
     0
 49
-7.5
 74
     0
  0
LTYPE
  5
3E
330
5
100
AcDbSymbolTableRecord
100
AcDbLinetypeTableRecord
  2
DASHEDX2
 70
     0
  3
破線B
 72
    65
 73
     2
 40
45.0
 49
30.0
 74
     0
 49
-15.0
 74
     0
  0
LTYPE
  5
3F
330
5
100
AcDbSymbolTableRecord
100
AcDbLinetypeTableRecord
  2
DASHDOT
 70
     0
  3
１点鎖線A
 72
    65
 73
     4
 40
30.0
 49
15.0
 74
     0
 49
-7.5
 74
     0
 49
0.0
 74
     0
 49
-7.5
 74
     0
  0
LTYPE
  5
40
330
5
100
AcDbSymbolTableRecord
100
AcDbLinetypeTableRecord
  2
DASHDOTX2
 70
     0
  3
１点鎖線B
 72
    65
 73
     4
 40
60.0
 49
30.0
 74
     0
 49
-15.0
 74
     0
 49
0.0
 74
     0
 49
-15.0
 74
     0
  0
LTYPE
  5
41
330
5
100
AcDbSymbolTableRecord
100
AcDbLinetypeTableRecord
  2
DIVIDE2
 70
     0
  3
２点鎖線A
 72
    65
 73
     6
 40
18.75
 49
7.5
 74
     0
 49
-3.75
 74
     0
 49
0.0
 74
     0
 49
-3.75
 74
     0
 49
0.0
 74
     0
 49
-3.75
 74
     0
  0
LTYPE
  5
42
330
5
100
AcDbSymbolTableRecord
100
AcDbLinetypeTableRecord
  2
DIVIDE
 70
     0
  3
２点鎖線B
 72
    65
 73
     6
 40
37.5
 49
15.0
 74
     0
 49
-7.5
 74
     0
 49
0.0
 74
     0
 49
-7.5
 74
     0
 49
0.0
 74
     0
 49
-7.5
 74
     0
  0
LTYPE
  5
43
330
5
100
AcDbSymbolTableRecord
100
AcDbLinetypeTableRecord
  2
DOT
 70
     0
  3
点線A
 72
    65
 73
     2
 40
7.5
 49
0.0
 74
     0
 49
-7.5
 74
     0
  0
LTYPE
  5
44
330
5
100
AcDbSymbolTableRecord
100
AcDbLinetypeTableRecord
  2
DOTX2
 70
     0
  3
点線B
 72
    65
 73
     2
 40
15.0
 49
0.0
 74
     0
 49
-15.0
 74
     0
  0
LTYPE
  5
45
330
5
100
AcDbSymbolTableRecord
100
AcDbLinetypeTableRecord
  2
CONTINUOUS
 70
     0
  3
実線
 72
    65
 73
     0
 40
0.0
  0
LTYPE
  5
46
330
5
100
AcDbSymbolTableRecord
100
AcDbLinetypeTableRecord
  2
CONTINUOUS
 70
     0
  3
実線
 72
    65
 73
     0
 40
0.0
  0
LTYPE
  5
47
330
5
100
AcDbSymbolTableRecord
100
AcDbLinetypeTableRecord
  2
CONTINUOUS
 70
     0
  3
実線
 72
    65
 73
     0
 40
0.0
  0
LTYPE
  5
48
330
5
100
AcDbSymbolTableRecord
100
AcDbLinetypeTableRecord
  2
CONTINUOUS
 70
     0
  3
実線
 72
    65
 73
     0
 40
0.0
  0
LTYPE
  5
49
330
5
100
AcDbSymbolTableRecord
100
AcDbLinetypeTableRecord
  2
CONTINUOUS
 70
     0
  3
実線
 72
    65
 73
     0
 40
0.0
  0
LTYPE
  5
4A
330
5
100
AcDbSymbolTableRecord
100
AcDbLinetypeTableRecord
  2
CONTINUOUS
 70
     0
  3
実線
 72
    65
 73
     0
 40
0.0
  0
ENDTAB
  0
TABLE
  2
LAYER
  5
2
330
0
100
AcDbSymbolTable
 70
     5
  0
LAYER
  5
10
330
2
100
AcDbSymbolTableRecord
100
AcDbLayerTableRecord
  2
ﾚｲﾔ1
 70
     0
 62
     7
  6
CONTINUOUS
370
    -3
390
F
  0
LAYER
  5
52
330
2
100
AcDbSymbolTableRecord
100
AcDbLayerTableRecord
  2
文字
 70
     0
 62
     7
  6
CONTINUOUS
370
    -3
390
F
  0
LAYER
  5
59
330
2
100
AcDbSymbolTableRecord
100
AcDbLayerTableRecord
  2
寸法
 70
     0
 62
     1
  6
CONTINUOUS
370
    -3
390
F
  0
LAYER
  5
5A
330
2
100
AcDbSymbolTableRecord
100
AcDbLayerTableRecord
  2
ﾊｯﾁﾝｸﾞ
 70
     0
 62
   253
  6
CONTINUOUS
370
    -3
390
F
  0
LAYER
  5
5C
330
2
100
AcDbSymbolTableRecord
100
AcDbLayerTableRecord
  2
0
 70
     0
 62
     7
  6
CONTINUOUS
370
    -3
390
F
  0
ENDTAB
  0
TABLE
  2
STYLE
  5
3
330
0
100
AcDbSymbolTable
 70
    12
  0
STYLE
  5
11
330
3
100
AcDbSymbolTableRecord
100
AcDbTextStyleTableRecord
  2
STANDARD
 70
     0
 40
3.0
 41
1.0
 50
0.0
 71
     0
 42
3.0
  3
TXT
  4
BIGFONT
  0
STYLE
  5
32
330
3
100
AcDbSymbolTableRecord
100
AcDbTextStyleTableRecord
  2
TATE
 70
     4
 40
3.0
 41
1.0
 50
0.0
 71
     0
 42
3.0
  3
TXT
  4
BIGFONT
  0
STYLE
  5
33
330
3
100
AcDbSymbolTableRecord
100
AcDbTextStyleTableRecord
  2
TextStyle01
 70
     0
 40
0.0
 41
1.0
 50
0.0
 71
     0
 42
0.0
  3
TXT
  4
BIGFONT
  0
STYLE
  5
34
330
3
100
AcDbSymbolTableRecord
100
AcDbTextStyleTableRecord
  2
TextStyle02
 70
     0
 40
0.0
 41
1.0
 50
0.0
 71
     0
 42
0.0
  3
TXT
  4
BIGFONT
  0
STYLE
  5
35
330
3
100
AcDbSymbolTableRecord
100
AcDbTextStyleTableRecord
  2
TextStyle03
 70
     0
 40
0.0
 41
1.0
 50
0.0
 71
     0
 42
0.0
  3
TXT
  4
BIGFONT
  0
STYLE
  5
36
330
3
100
AcDbSymbolTableRecord
100
AcDbTextStyleTableRecord
  2
TextStyle04
 70
     0
 40
0.0
 41
1.0
 50
0.0
 71
     0
 42
0.0
  3
TXT
  4
BIGFONT
  0
STYLE
  5
37
330
3
100
AcDbSymbolTableRecord
100
AcDbTextStyleTableRecord
  2
TextStyle05
 70
     0
 40
0.0
 41
1.0
 50
0.0
 71
     0
 42
0.0
  3
TXT
  4
BIGFONT
  0
STYLE
  5
38
330
3
100
AcDbSymbolTableRecord
100
AcDbTextStyleTableRecord
  2
TextStyle06
 70
     0
 40
0.0
 41
1.0
 50
0.0
 71
     0
 42
0.0
  3

  4

  0
STYLE
  5
39
330
3
100
AcDbSymbolTableRecord
100
AcDbTextStyleTableRecord
  2
TextStyle07
 70
     0
 40
0.0
 41
1.0
 50
0.0
 71
     0
 42
0.0
  3

  4

  0
STYLE
  5
3A
330
3
100
AcDbSymbolTableRecord
100
AcDbTextStyleTableRecord
  2
TextStyle08
 70
     0
 40
0.0
 41
1.0
 50
0.0
 71
     0
 42
0.0
  3

  4

  0
STYLE
  5
3B
330
3
100
AcDbSymbolTableRecord
100
AcDbTextStyleTableRecord
  2
TextStyle09
 70
     0
 40
0.0
 41
1.0
 50
0.0
 71
     0
 42
0.0
  3

  4

  0
STYLE
  5
3C
330
3
100
AcDbSymbolTableRecord
100
AcDbTextStyleTableRecord
  2
TextStyle10
 70
     0
 40
0.0
 41
1.0
 50
0.0
 71
     0
 42
0.0
  3

  4

  0
ENDTAB
  0
TABLE
  2
VIEW
  5
6
330
0
100
AcDbSymbolTable
 70
     0
  0
ENDTAB
  0
TABLE
  2
UCS
  5
7
330
0
100
AcDbSymbolTable
 70
     0
  0
ENDTAB
  0
TABLE
  2
APPID
  5
9
330
0
100
AcDbSymbolTable
 70
     1
  0
APPID
  5
12
330
9
100
AcDbSymbolTableRecord
100
AcDbRegAppTableRecord
  2
ACAD
 70
     0
  0
ENDTAB
  0
TABLE
  2
DIMSTYLE
  5
A
330
0
100
AcDbSymbolTable
 70
     1
100
AcDbDimStyleTable
 71
     1
340
E95
  0
DIMSTYLE
105
E95
330
A
100
AcDbSymbolTableRecord
100
AcDbDimStyleTableRecord
  2
Standard
 70
     0
340
11
  0
ENDTAB
  0
TABLE
  2
BLOCK_RECORD
  5
1
330
0
100
AcDbSymbolTable
 70
    17
  0
BLOCK_RECORD
  5
1E
330
1
100
AcDbSymbolTableRecord
100
AcDbBlockTableRecord
  2
*Model_Space
340
21
  0
BLOCK_RECORD
  5
1A
330
1
100
AcDbSymbolTableRecord
100
AcDbBlockTableRecord
  2
*Paper_Space
340
1D
  0
BLOCK_RECORD
  5
22
330
1
100
AcDbSymbolTableRecord
100
AcDbBlockTableRecord
  2
*G0
340
0
102
{BLKREFS
331
E06
102
}
  0
BLOCK_RECORD
  5
23
330
1
100
AcDbSymbolTableRecord
100
AcDbBlockTableRecord
  2
*G1
340
0
102
{BLKREFS
331
E08
102
}
  0
BLOCK_RECORD
  5
24
330
1
100
AcDbSymbolTableRecord
100
AcDbBlockTableRecord
  2
*G2
340
0
102
{BLKREFS
331
E0A
102
}
  0
BLOCK_RECORD
  5
25
330
1
100
AcDbSymbolTableRecord
100
AcDbBlockTableRecord
  2
*G3
340
0
102
{BLKREFS
331
E0C
102
}
  0
BLOCK_RECORD
  5
26
330
1
100
AcDbSymbolTableRecord
100
AcDbBlockTableRecord
  2
*G4
340
0
102
{BLKREFS
331
E0E
102
}
  0
BLOCK_RECORD
  5
27
330
1
100
AcDbSymbolTableRecord
100
AcDbBlockTableRecord
  2
*G5
340
0
102
{BLKREFS
331
E10
102
}
  0
BLOCK_RECORD
  5
28
330
1
100
AcDbSymbolTableRecord
100
AcDbBlockTableRecord
  2
*G6
340
0
102
{BLKREFS
331
E13
102
}
  0
BLOCK_RECORD
  5
29
330
1
100
AcDbSymbolTableRecord
100
AcDbBlockTableRecord
  2
*G7
340
0
102
{BLKREFS
331
E17
102
}
  0
BLOCK_RECORD
  5
2A
330
1
100
AcDbSymbolTableRecord
100
AcDbBlockTableRecord
  2
*G8
340
0
102
{BLKREFS
331
E19
102
}
  0
BLOCK_RECORD
  5
2B
330
1
100
AcDbSymbolTableRecord
100
AcDbBlockTableRecord
  2
*G9
340
0
102
{BLKREFS
331
E25
102
}
  0
BLOCK_RECORD
  5
2C
330
1
100
AcDbSymbolTableRecord
100
AcDbBlockTableRecord
  2
*G10
340
0
102
{BLKREFS
331
E29
102
}
  0
BLOCK_RECORD
  5
2D
330
1
100
AcDbSymbolTableRecord
100
AcDbBlockTableRecord
  2
*G11
340
0
102
{BLKREFS
331
E2B
102
}
  0
BLOCK_RECORD
  5
2E
330
1
100
AcDbSymbolTableRecord
100
AcDbBlockTableRecord
  2
*G12
340
0
102
{BLKREFS
331
E2F
102
}
  0
BLOCK_RECORD
  5
2F
330
1
100
AcDbSymbolTableRecord
100
AcDbBlockTableRecord
  2
*G13
340
0
102
{BLKREFS
331
E31
102
}
  0
BLOCK_RECORD
  5
30
330
1
100
AcDbSymbolTableRecord
100
AcDbBlockTableRecord
  2
*G14
340
0
102
{BLKREFS
331
E39
102
}
  0
BLOCK_RECORD
  5
EB1
330
1
100
AcDbSymbolTableRecord
100
AcDbBlockTableRecord
  2
_Open30
340
0
  0
BLOCK_RECORD
  5
EBF
330
1
100
AcDbSymbolTableRecord
100
AcDbBlockTableRecord
  2
_Open90
340
0
  0
ENDTAB
  0
ENDSEC
  0
SECTION
  2
BLOCKS
  0
BLOCK
  5
5F
330
1E
100
AcDbEntity
  8
0
100
AcDbBlockBegin
  2
*Model_Space
 70
     0
 10
0.0
 20
0.0
 30
0.0
  3
*Model_Space
  1

  0
ENDBLK
  5
60
330
1E
100
AcDbEntity
  8
0
100
AcDbBlockEnd
  0
BLOCK
  5
5D
330
1A
100
AcDbEntity
 67
     1
  8
0
100
AcDbBlockBegin
  2
*Paper_Space
 70
     0
 10
0.0
 20
0.0
 30
0.0
  3
*Paper_Space
  1

  0
ENDBLK
  5
5E
330
1A
100
AcDbEntity
 67
     1
  8
0
100
AcDbBlockEnd
  0
BLOCK
  5
61
330
22
100
AcDbEntity
  8
ﾚｲﾔ1
100
AcDbBlockBegin
  2
*G0
 70
     1
 10
0.0
 20
0.0
 30
0.0
  3
*G0
  1

  0
LINE
  5
62
330
22
100
AcDbEntity
  8
寸法
  6
Continuous
100
AcDbLine
 10
310.875
 20
85.05
 30
0.0
 11
305.85
 21
85.05
 31
0.0
  0
LINE
  5
63
330
22
100
AcDbEntity
  8
寸法
  6
Continuous
100
AcDbLine
 10
319.5
 20
87.375
 30
0.0
 11
310.875
 21
85.05
 31
0.0
  0
LINE
  5
64
330
22
100
AcDbEntity
  8
寸法
  6
Continuous
100
AcDbLine
 10
310.875
 20
85.05
 30
0.0
 11
319.5
 21
82.65
 31
0.0
  0
LINE
  5
65
330
22
100
AcDbEntity
  8
寸法
  6
Continuous
100
AcDbLine
 10
316.875
 20
85.05
 30
0.0
 11
310.875
 21
85.05
 31
0.0
  0
LINE
  5
66
330
22
100
AcDbEntity
  8
寸法
  6
Continuous
100
AcDbLine
 10
297.15
 20
82.65
 30
0.0
 11
305.85
 21
85.05
 31
0.0
  0
LINE
  5
67
330
22
100
AcDbEntity
  8
寸法
  6
Continuous
100
AcDbLine
 10
305.85
 20
85.05
 30
0.0
 11
297.15
 21
87.375
 31
0.0
  0
LINE
  5
68
330
22
100
AcDbEntity
  8
寸法
  6
Continuous
100
AcDbLine
 10
299.85
 20
85.05
 30
0.0
 11
305.85
 21
85.05
 31
0.0
  0
ENDBLK
  5
69
330
22
100
AcDbEntity
  8
ﾚｲﾔ1
100
AcDbBlockEnd
  0
BLOCK
  5
6A
330
23
100
AcDbEntity
  8
ﾚｲﾔ1
100
AcDbBlockBegin
  2
*G1
 70
     1
 10
0.0
 20
0.0
 30
0.0
  3
*G1
  1

  0
LINE
  5
6B
330
23
100
AcDbEntity
  8
寸法
  6
Continuous
100
AcDbLine
 10
305.85
 20
85.05
 30
0.0
 11
280.875
 21
85.05
 31
0.0
  0
LINE
  5
6C
330
23
100
AcDbEntity
  8
寸法
  6
Continuous
100
AcDbLine
 10
297.15
 20
82.65
 30
0.0
 11
305.85
 21
85.05
 31
0.0
  0
LINE
  5
6D
330
23
100
AcDbEntity
  8
寸法
  6
Continuous
100
AcDbLine
 10
305.85
 20
85.05
 30
0.0
 11
297.15
 21
87.375
 31
0.0
  0
LINE
  5
6E
330
23
100
AcDbEntity
  8
寸法
  6
Continuous
100
AcDbLine
 10
289.5
 20
87.375
 30
0.0
 11
280.875
 21
85.05
 31
0.0
  0
LINE
  5
6F
330
23
100
AcDbEntity
  8
寸法
  6
Continuous
100
AcDbLine
 10
280.875
 20
85.05
 30
0.0
 11
289.5
 21
82.65
 31
0.0
  0
ENDBLK
  5
70
330
23
100
AcDbEntity
  8
ﾚｲﾔ1
100
AcDbBlockEnd
  0
BLOCK
  5
71
330
24
100
AcDbEntity
  8
ﾚｲﾔ1
100
AcDbBlockBegin
  2
*G2
 70
     1
 10
0.0
 20
0.0
 30
0.0
  3
*G2
  1

  0
LINE
  5
72
330
24
100
AcDbEntity
  8
寸法
  6
Continuous
100
AcDbLine
 10
280.875
 20
85.05
 30
0.0
 11
170.85
 21
85.05
 31
0.0
  0
LINE
  5
73
330
24
100
AcDbEntity
  8
寸法
  6
Continuous
100
AcDbLine
 10
272.175
 20
82.65
 30
0.0
 11
280.875
 21
85.05
 31
0.0
  0
LINE
  5
74
330
24
100
AcDbEntity
  8
寸法
  6
Continuous
100
AcDbLine
 10
280.875
 20
85.05
 30
0.0
 11
272.175
 21
87.375
 31
0.0
  0
LINE
  5
75
330
24
100
AcDbEntity
  8
寸法
  6
Continuous
100
AcDbLine
 10
179.475
 20
87.375
 30
0.0
 11
170.85
 21
85.05
 31
0.0
  0
LINE
  5
76
330
24
100
AcDbEntity
  8
寸法
  6
Continuous
100
AcDbLine
 10
170.85
 20
85.05
 30
0.0
 11
179.475
 21
82.65
 31
0.0
  0
ENDBLK
  5
77
330
24
100
AcDbEntity
  8
ﾚｲﾔ1
100
AcDbBlockEnd
  0
BLOCK
  5
78
330
25
100
AcDbEntity
  8
ﾚｲﾔ1
100
AcDbBlockBegin
  2
*G3
 70
     1
 10
0.0
 20
0.0
 30
0.0
  3
*G3
  1

  0
LINE
  5
79
330
25
100
AcDbEntity
  8
寸法
  6
Continuous
100
AcDbLine
 10
170.85
 20
85.05
 30
0.0
 11
145.8
 21
85.05
 31
0.0
  0
LINE
  5
7A
330
25
100
AcDbEntity
  8
寸法
  6
Continuous
100
AcDbLine
 10
162.15
 20
82.65
 30
0.0
 11
170.85
 21
85.05
 31
0.0
  0
LINE
  5
7B
330
25
100
AcDbEntity
  8
寸法
  6
Continuous
100
AcDbLine
 10
170.85
 20
85.05
 30
0.0
 11
162.15
 21
87.375
 31
0.0
  0
LINE
  5
7C
330
25
100
AcDbEntity
  8
寸法
  6
Continuous
100
AcDbLine
 10
154.425
 20
87.375
 30
0.0
 11
145.8
 21
85.05
 31
0.0
  0
LINE
  5
7D
330
25
100
AcDbEntity
  8
寸法
  6
Continuous
100
AcDbLine
 10
145.8
 20
85.05
 30
0.0
 11
154.425
 21
82.65
 31
0.0
  0
ENDBLK
  5
7E
330
25
100
AcDbEntity
  8
ﾚｲﾔ1
100
AcDbBlockEnd
  0
BLOCK
  5
7F
330
26
100
AcDbEntity
  8
ﾚｲﾔ1
100
AcDbBlockBegin
  2
*G4
 70
     1
 10
0.0
 20
0.0
 30
0.0
  3
*G4
  1

  0
LINE
  5
80
330
26
100
AcDbEntity
  8
寸法
  6
Continuous
100
AcDbLine
 10
145.8
 20
85.05
 30
0.0
 11
35.775
 21
85.05
 31
0.0
  0
LINE
  5
81
330
26
100
AcDbEntity
  8
寸法
  6
Continuous
100
AcDbLine
 10
137.1
 20
82.65
 30
0.0
 11
145.8
 21
85.05
 31
0.0
  0
LINE
  5
82
330
26
100
AcDbEntity
  8
寸法
  6
Continuous
100
AcDbLine
 10
145.8
 20
85.05
 30
0.0
 11
137.1
 21
87.375
 31
0.0
  0
LINE
  5
83
330
26
100
AcDbEntity
  8
寸法
  6
Continuous
100
AcDbLine
 10
44.4
 20
87.375
 30
0.0
 11
35.775
 21
85.05
 31
0.0
  0
LINE
  5
84
330
26
100
AcDbEntity
  8
寸法
  6
Continuous
100
AcDbLine
 10
35.775
 20
85.05
 30
0.0
 11
44.4
 21
82.65
 31
0.0
  0
ENDBLK
  5
85
330
26
100
AcDbEntity
  8
ﾚｲﾔ1
100
AcDbBlockEnd
  0
BLOCK
  5
86
330
27
100
AcDbEntity
  8
ﾚｲﾔ1
100
AcDbBlockBegin
  2
*G5
 70
     1
 10
0.0
 20
0.0
 30
0.0
  3
*G5
  1

  0
LINE
  5
87
330
27
100
AcDbEntity
  8
寸法
  6
Continuous
100
AcDbLine
 10
35.775
 20
85.05
 30
0.0
 11
17.85
 21
85.05
 31
0.0
  0
LINE
  5
88
330
27
100
AcDbEntity
  8
寸法
  6
Continuous
100
AcDbLine
 10
44.4
 20
87.375
 30
0.0
 11
35.775
 21
85.05
 31
0.0
  0
LINE
  5
89
330
27
100
AcDbEntity
  8
寸法
  6
Continuous
100
AcDbLine
 10
35.775
 20
85.05
 30
0.0
 11
44.4
 21
82.65
 31
0.0
  0
LINE
  5
8A
330
27
100
AcDbEntity
  8
寸法
  6
Continuous
100
AcDbLine
 10
41.77500000000001
 20
85.05
 30
0.0
 11
35.775
 21
85.05
 31
0.0
  0
LINE
  5
8B
330
27
100
AcDbEntity
  8
寸法
  6
Continuous
100
AcDbLine
 10
9.15
 20
82.65
 30
0.0
 11
17.85
 21
85.05
 31
0.0
  0
LINE
  5
8C
330
27
100
AcDbEntity
  8
寸法
  6
Continuous
100
AcDbLine
 10
17.85
 20
85.05
 30
0.0
 11
9.15
 21
87.375
 31
0.0
  0
LINE
  5
8D
330
27
100
AcDbEntity
  8
寸法
  6
Continuous
100
AcDbLine
 10
11.85
 20
85.05
 30
0.0
 11
17.85
 21
85.05
 31
0.0
  0
ENDBLK
  5
8E
330
27
100
AcDbEntity
  8
ﾚｲﾔ1
100
AcDbBlockEnd
  0
BLOCK
  5
8F
330
28
100
AcDbEntity
  8
ﾚｲﾔ1
100
AcDbBlockBegin
  2
*G6
 70
     1
 10
0.0
 20
0.0
 30
0.0
  3
*G6
  1

  0
LINE
  5
90
330
28
100
AcDbEntity
  8
寸法
  6
Continuous
100
AcDbLine
 10
310.875
 20
127.65
 30
0.0
 11
17.85
 21
127.65
 31
0.0
  0
LINE
  5
91
330
28
100
AcDbEntity
  8
寸法
  6
Continuous
100
AcDbLine
 10
302.175
 20
125.25
 30
0.0
 11
310.875
 21
127.65
 31
0.0
  0
LINE
  5
92
330
28
100
AcDbEntity
  8
寸法
  6
Continuous
100
AcDbLine
 10
310.875
 20
127.65
 30
0.0
 11
302.175
 21
129.975
 31
0.0
  0
LINE
  5
93
330
28
100
AcDbEntity
  8
寸法
  6
Continuous
100
AcDbLine
 10
26.475
 20
129.975
 30
0.0
 11
17.85
 21
127.65
 31
0.0
  0
LINE
  5
94
330
28
100
AcDbEntity
  8
寸法
  6
Continuous
100
AcDbLine
 10
17.85
 20
127.65
 30
0.0
 11
26.475
 21
125.25
 31
0.0
  0
ENDBLK
  5
95
330
28
100
AcDbEntity
  8
ﾚｲﾔ1
100
AcDbBlockEnd
  0
BLOCK
  5
96
330
29
100
AcDbEntity
  8
ﾚｲﾔ1
100
AcDbBlockBegin
  2
*G7
 70
     1
 10
0.0
 20
0.0
 30
0.0
  3
*G7
  1

  0
LINE
  5
97
330
29
100
AcDbEntity
  8
寸法
  6
Continuous
100
AcDbLine
 10
17.85
 20
127.65
 30
0.0
 11
-9.15
 21
127.65
 31
0.0
  0
LINE
  5
98
330
29
100
AcDbEntity
  8
寸法
  6
Continuous
100
AcDbLine
 10
9.15
 20
125.25
 30
0.0
 11
17.85
 21
127.65
 31
0.0
  0
LINE
  5
99
330
29
100
AcDbEntity
  8
寸法
  6
Continuous
100
AcDbLine
 10
17.85
 20
127.65
 30
0.0
 11
9.15
 21
129.975
 31
0.0
  0
LINE
  5
9A
330
29
100
AcDbEntity
  8
寸法
  6
Continuous
100
AcDbLine
 10
-0.525
 20
129.975
 30
0.0
 11
-9.15
 21
127.65
 31
0.0
  0
LINE
  5
9B
330
29
100
AcDbEntity
  8
寸法
  6
Continuous
100
AcDbLine
 10
-9.15
 20
127.65
 30
0.0
 11
-0.525
 21
125.25
 31
0.0
  0
ENDBLK
  5
9C
330
29
100
AcDbEntity
  8
ﾚｲﾔ1
100
AcDbBlockEnd
  0
BLOCK
  5
9D
330
2A
100
AcDbEntity
  8
ﾚｲﾔ1
100
AcDbBlockBegin
  2
*G8
 70
     1
 10
0.0
 20
0.0
 30
0.0
  3
*G8
  1

  0
LINE
  5
9E
330
2A
100
AcDbEntity
  8
寸法
  6
Continuous
100
AcDbLine
 10
310.875
 20
163.65
 30
0.0
 11
-9.15
 21
163.65
 31
0.0
  0
LINE
  5
9F
330
2A
100
AcDbEntity
  8
寸法
  6
Continuous
100
AcDbLine
 10
302.175
 20
161.25
 30
0.0
 11
310.875
 21
163.65
 31
0.0
  0
LINE
  5
A0
330
2A
100
AcDbEntity
  8
寸法
  6
Continuous
100
AcDbLine
 10
310.875
 20
163.65
 30
0.0
 11
302.175
 21
165.975
 31
0.0
  0
LINE
  5
A1
330
2A
100
AcDbEntity
  8
寸法
  6
Continuous
100
AcDbLine
 10
-0.525
 20
165.975
 30
0.0
 11
-9.15
 21
163.65
 31
0.0
  0
LINE
  5
A2
330
2A
100
AcDbEntity
  8
寸法
  6
Continuous
100
AcDbLine
 10
-9.15
 20
163.65
 30
0.0
 11
-0.525
 21
161.25
 31
0.0
  0
ENDBLK
  5
A3
330
2A
100
AcDbEntity
  8
ﾚｲﾔ1
100
AcDbBlockEnd
  0
BLOCK
  5
A4
330
2B
100
AcDbEntity
  8
ﾚｲﾔ1
100
AcDbBlockBegin
  2
*G9
 70
     1
 10
0.0
 20
0.0
 30
0.0
  3
*G9
  1

  0
LINE
  5
A5
330
2B
100
AcDbEntity
  8
寸法
  6
Continuous
100
AcDbLine
 10
365.55
 20
-26.40000000000001
 30
0.0
 11
365.55
 21
-146.4
 31
0.0
  0
LINE
  5
A6
330
2B
100
AcDbEntity
  8
寸法
  6
Continuous
100
AcDbLine
 10
367.875
 20
-35.1
 30
0.0
 11
365.55
 21
-26.40000000000001
 31
0.0
  0
LINE
  5
A7
330
2B
100
AcDbEntity
  8
寸法
  6
Continuous
100
AcDbLine
 10
365.55
 20
-26.40000000000001
 30
0.0
 11
363.15
 21
-35.1
 31
0.0
  0
LINE
  5
A8
330
2B
100
AcDbEntity
  8
寸法
  6
Continuous
100
AcDbLine
 10
363.15
 20
-137.775
 30
0.0
 11
365.55
 21
-146.4
 31
0.0
  0
LINE
  5
A9
330
2B
100
AcDbEntity
  8
寸法
  6
Continuous
100
AcDbLine
 10
365.55
 20
-146.4
 30
0.0
 11
367.875
 21
-137.775
 31
0.0
  0
ENDBLK
  5
AA
330
2B
100
AcDbEntity
  8
ﾚｲﾔ1
100
AcDbBlockEnd
  0
BLOCK
  5
AB
330
2C
100
AcDbEntity
  8
ﾚｲﾔ1
100
AcDbBlockBegin
  2
*G10
 70
     1
 10
0.0
 20
0.0
 30
0.0
  3
*G10
  1

  0
LINE
  5
AC
330
2C
100
AcDbEntity
  8
寸法
  6
Continuous
100
AcDbLine
 10
-100.05
 20
-193.875
 30
0.0
 11
-100.05
 21
21.075
 31
0.0
  0
LINE
  5
AD
330
2C
100
AcDbEntity
  8
寸法
  6
Continuous
100
AcDbLine
 10
-102.45
 20
-185.25
 30
0.0
 11
-100.05
 21
-193.875
 31
0.0
  0
LINE
  5
AE
330
2C
100
AcDbEntity
  8
寸法
  6
Continuous
100
AcDbLine
 10
-100.05
 20
-193.875
 30
0.0
 11
-97.725
 21
-185.25
 31
0.0
  0
LINE
  5
AF
330
2C
100
AcDbEntity
  8
寸法
  6
Continuous
100
AcDbLine
 10
-97.725
 20
12.375
 30
0.0
 11
-100.05
 21
21.075
 31
0.0
  0
LINE
  5
B0
330
2C
100
AcDbEntity
  8
寸法
  6
Continuous
100
AcDbLine
 10
-100.05
 20
21.075
 30
0.0
 11
-102.45
 21
12.375
 31
0.0
  0
ENDBLK
  5
B1
330
2C
100
AcDbEntity
  8
ﾚｲﾔ1
100
AcDbBlockEnd
  0
BLOCK
  5
B2
330
2D
100
AcDbEntity
  8
ﾚｲﾔ1
100
AcDbBlockBegin
  2
*G11
 70
     1
 10
0.0
 20
0.0
 30
0.0
  3
*G11
  1

  0
LINE
  5
B3
330
2D
100
AcDbEntity
  8
寸法
  6
Continuous
100
AcDbLine
 10
-150.45
 20
270.525
 30
0.0
 11
-150.45
 21
150.75
 31
0.0
  0
LINE
  5
B4
330
2D
100
AcDbEntity
  8
寸法
  6
Continuous
100
AcDbLine
 10
-148.125
 20
261.825
 30
0.0
 11
-150.45
 21
270.525
 31
0.0
  0
LINE
  5
B5
330
2D
100
AcDbEntity
  8
寸法
  6
Continuous
100
AcDbLine
 10
-150.45
 20
270.525
 30
0.0
 11
-152.85
 21
261.825
 31
0.0
  0
LINE
  5
B6
330
2D
100
AcDbEntity
  8
寸法
  6
Continuous
100
AcDbLine
 10
-152.85
 20
159.375
 30
0.0
 11
-150.45
 21
150.75
 31
0.0
  0
LINE
  5
B7
330
2D
100
AcDbEntity
  8
寸法
  6
Continuous
100
AcDbLine
 10
-150.45
 20
150.75
 30
0.0
 11
-148.125
 21
159.375
 31
0.0
  0
ENDBLK
  5
B8
330
2D
100
AcDbEntity
  8
ﾚｲﾔ1
100
AcDbBlockEnd
  0
BLOCK
  5
B9
330
2E
100
AcDbEntity
  8
ﾚｲﾔ1
100
AcDbBlockBegin
  2
*G12
 70
     1
 10
0.0
 20
0.0
 30
0.0
  3
*G12
  1

  0
LINE
  5
BA
330
2E
100
AcDbEntity
  8
寸法
  6
Continuous
100
AcDbLine
 10
400.65
 20
-169.5
 30
0.0
 11
400.65
 21
-3.3
 31
0.0
  0
LINE
  5
BB
330
2E
100
AcDbEntity
  8
寸法
  6
Continuous
100
AcDbLine
 10
398.25
 20
-160.875
 30
0.0
 11
400.65
 21
-169.5
 31
0.0
  0
LINE
  5
BC
330
2E
100
AcDbEntity
  8
寸法
  6
Continuous
100
AcDbLine
 10
400.65
 20
-169.5
 30
0.0
 11
402.9749999999999
 21
-160.875
 31
0.0
  0
LINE
  5
BD
330
2E
100
AcDbEntity
  8
寸法
  6
Continuous
100
AcDbLine
 10
402.9749999999999
 20
-12.0
 30
0.0
 11
400.65
 21
-3.3
 31
0.0
  0
LINE
  5
BE
330
2E
100
AcDbEntity
  8
寸法
  6
Continuous
100
AcDbLine
 10
400.65
 20
-3.3
 30
0.0
 11
398.25
 21
-12.0
 31
0.0
  0
ENDBLK
  5
BF
330
2E
100
AcDbEntity
  8
ﾚｲﾔ1
100
AcDbBlockEnd
  0
BLOCK
  5
C0
330
2F
100
AcDbEntity
  8
ﾚｲﾔ1
100
AcDbBlockBegin
  2
*G13
 70
     1
 10
0.0
 20
0.0
 30
0.0
  3
*G13
  1

  0
LINE
  5
C1
330
2F
100
AcDbEntity
  8
寸法
  6
Continuous
100
AcDbLine
 10
-65.10000000000001
 20
-138.9
 30
0.0
 11
-65.10000000000001
 21
-33.75
 31
0.0
  0
LINE
  5
C2
330
2F
100
AcDbEntity
  8
寸法
  6
Continuous
100
AcDbLine
 10
-67.5
 20
-130.275
 30
0.0
 11
-65.10000000000001
 21
-138.9
 31
0.0
  0
LINE
  5
C3
330
2F
100
AcDbEntity
  8
寸法
  6
Continuous
100
AcDbLine
 10
-65.10000000000001
 20
-138.9
 30
0.0
 11
-62.775
 21
-130.275
 31
0.0
  0
LINE
  5
C4
330
2F
100
AcDbEntity
  8
寸法
  6
Continuous
100
AcDbLine
 10
-62.775
 20
-42.45
 30
0.0
 11
-65.10000000000001
 21
-33.75
 31
0.0
  0
LINE
  5
C5
330
2F
100
AcDbEntity
  8
寸法
  6
Continuous
100
AcDbLine
 10
-65.10000000000001
 20
-33.75
 30
0.0
 11
-67.5
 21
-42.45
 31
0.0
  0
ENDBLK
  5
C6
330
2F
100
AcDbEntity
  8
ﾚｲﾔ1
100
AcDbBlockEnd
  0
BLOCK
  5
C7
330
30
100
AcDbEntity
  8
ﾚｲﾔ1
100
AcDbBlockBegin
  2
*G14
 70
     1
 10
0.0
 20
0.0
 30
0.0
  3
*G14
  1

  0
LINE
  5
C8
330
30
100
AcDbEntity
  8
寸法
  6
Continuous
100
AcDbLine
 10
-377.7000000000001
 20
-120.6
 30
0.0
 11
-260.775
 21
-53.1
 31
0.0
  0
LINE
  5
C9
330
30
100
AcDbEntity
  8
寸法
  6
Continuous
100
AcDbLine
 10
-371.4
 20
-114.3
 30
0.0
 11
-377.7000000000001
 21
-120.6
 31
0.0
  0
LINE
  5
CA
330
30
100
AcDbEntity
  8
寸法
  6
Continuous
100
AcDbLine
 10
-377.7000000000001
 20
-120.6
 30
0.0
 11
-369.075
 21
-118.275
 31
0.0
  0
LINE
  5
CB
330
30
100
AcDbEntity
  8
寸法
  6
Continuous
100
AcDbLine
 10
-267.15
 20
-59.475
 30
0.0
 11
-260.775
 21
-53.1
 31
0.0
  0
LINE
  5
CC
330
30
100
AcDbEntity
  8
寸法
  6
Continuous
100
AcDbLine
 10
-260.775
 20
-53.1
 30
0.0
 11
-269.475
 21
-55.5
 31
0.0
  0
ENDBLK
  5
CD
330
30
100
AcDbEntity
  8
ﾚｲﾔ1
100
AcDbBlockEnd
  0
BLOCK
  5
EB5
330
EB1
100
AcDbEntity
  8
0
100
AcDbBlockBegin
  2
_Open30
 70
     0
 10
0.0
 20
0.0
 30
0.0
  3
_Open30
  1

  0
LINE
  5
EB2
330
EB1
100
AcDbEntity
  8
ﾚｲﾔ1
 62
     0
370
    -2
100
AcDbLine
 10
-1.0
 20
0.26794919
 30
0.0
 11
0.0
 21
0.0
 31
0.0
  0
LINE
  5
EB3
330
EB1
100
AcDbEntity
  8
ﾚｲﾔ1
 62
     0
370
    -2
100
AcDbLine
 10
0.0
 20
0.0
 30
0.0
 11
-1.0
 21
-0.26794919
 31
0.0
  0
LINE
  5
EB4
330
EB1
100
AcDbEntity
  8
ﾚｲﾔ1
 62
     0
370
    -2
100
AcDbLine
 10
0.0
 20
0.0
 30
0.0
 11
-1.0
 21
0.0
 31
0.0
  0
ENDBLK
  5
EB6
330
EB1
100
AcDbEntity
  8
0
100
AcDbBlockEnd
  0
BLOCK
  5
EC3
330
EBF
100
AcDbEntity
  8
0
100
AcDbBlockBegin
  2
_Open90
 70
     0
 10
0.0
 20
0.0
 30
0.0
  3
_Open90
  1

  0
LINE
  5
EC0
330
EBF
100
AcDbEntity
  8
寸法
 62
     0
370
    -2
100
AcDbLine
 10
-0.5
 20
0.5
 30
0.0
 11
0.0
 21
0.0
 31
0.0
  0
LINE
  5
EC1
330
EBF
100
AcDbEntity
  8
寸法
 62
     0
370
    -2
100
AcDbLine
 10
0.0
 20
0.0
 30
0.0
 11
-0.5
 21
-0.5
 31
0.0
  0
LINE
  5
EC2
330
EBF
100
AcDbEntity
  8
寸法
 62
     0
370
    -2
100
AcDbLine
 10
0.0
 20
0.0
 30
0.0
 11
-1.0
 21
0.0
 31
0.0
  0
ENDBLK
  5
EC4
330
EBF
100
AcDbEntity
  8
0
100
AcDbBlockEnd
  0
ENDSEC
  0
SECTION
  2
ENTITIES
  0
LWPOLYLINE
  5
D4
330
1E
100
AcDbEntity
  8
ﾚｲﾔ1
  6
Continuous
 62
     9
100
AcDbPolyline
 90
        4
 70
     1
 43
0.0
 10
-630.0
 20
-445.5
 10
630.0
 20
-445.5
 10
630.0
 20
445.5
 10
-630.0
 20
445.5
  0
LINE
  5
DA
330
1E
100
AcDbEntity
  8
ﾚｲﾔ1
  6
Continuous
 62
     5
100
AcDbLine
 10
183.9
 20
-338.4
 30
0.0
 11
183.9
 21
-368.4000000000001
 31
0.0
  0
LINE
  5
DB
330
1E
100
AcDbEntity
  8
ﾚｲﾔ1
  6
Continuous
 62
     5
100
AcDbLine
 10
183.9
 20
-368.4000000000001
 30
0.0
 11
213.9
 21
-368.4000000000001
 31
0.0
  0
LINE
  5
DC
330
1E
100
AcDbEntity
  8
ﾚｲﾔ1
  6
Continuous
 62
     5
100
AcDbLine
 10
213.9
 20
-368.4000000000001
 30
0.0
 11
213.9
 21
-338.4
 31
0.0
  0
LINE
  5
DD
330
1E
100
AcDbEntity
  8
ﾚｲﾔ1
  6
Continuous
 62
     5
100
AcDbLine
 10
213.9
 20
-338.4
 30
0.0
 11
183.9
 21
-338.4
 31
0.0
  0
LINE
  5
DE
330
1E
100
AcDbEntity
  8
ﾚｲﾔ1
  6
Continuous
 62
     5
100
AcDbLine
 10
213.9
 20
-338.4
 30
0.0
 11
213.9
 21
-368.4000000000001
 31
0.0
  0
LINE
  5
DF
330
1E
100
AcDbEntity
  8
ﾚｲﾔ1
  6
Continuous
 62
     5
100
AcDbLine
 10
213.9
 20
-368.4000000000001
 30
0.0
 11
243.9
 21
-368.4000000000001
 31
0.0
  0
LINE
  5
E0
330
1E
100
AcDbEntity
  8
ﾚｲﾔ1
  6
Continuous
 62
     5
100
AcDbLine
 10
243.9
 20
-368.4000000000001
 30
0.0
 11
243.9
 21
-338.4
 31
0.0
  0
LINE
  5
E1
330
1E
100
AcDbEntity
  8
ﾚｲﾔ1
  6
Continuous
 62
     5
100
AcDbLine
 10
243.9
 20
-338.4
 30
0.0
 11
213.9
 21
-338.4
 31
0.0
  0
LINE
  5
E2
330
1E
100
AcDbEntity
  8
ﾚｲﾔ1
  6
Continuous
 62
     5
100
AcDbLine
 10
243.9
 20
-338.4
 30
0.0
 11
243.9
 21
-368.4000000000001
 31
0.0
  0
LINE
  5
E3
330
1E
100
AcDbEntity
  8
ﾚｲﾔ1
  6
Continuous
 62
     5
100
AcDbLine
 10
243.9
 20
-368.4000000000001
 30
0.0
 11
273.9
 21
-368.4000000000001
 31
0.0
  0
LINE
  5
E4
330
1E
100
AcDbEntity
  8
ﾚｲﾔ1
  6
Continuous
 62
     5
100
AcDbLine
 10
273.9
 20
-368.4000000000001
 30
0.0
 11
273.9
 21
-338.4
 31
0.0
  0
LINE
  5
E5
330
1E
100
AcDbEntity
  8
ﾚｲﾔ1
  6
Continuous
 62
     5
100
AcDbLine
 10
273.9
 20
-338.4
 30
0.0
 11
243.9
 21
-338.4
 31
0.0
  0
LINE
  5
E6
330
1E
100
AcDbEntity
  8
ﾚｲﾔ1
  6
Continuous
 62
     5
100
AcDbLine
 10
273.9
 20
-338.4
 30
0.0
 11
273.9
 21
-368.4000000000001
 31
0.0
  0
LINE
  5
E7
330
1E
100
AcDbEntity
  8
ﾚｲﾔ1
  6
Continuous
 62
     5
100
AcDbLine
 10
273.9
 20
-368.4000000000001
 30
0.0
 11
303.9000000000001
 21
-368.4000000000001
 31
0.0
  0
LINE
  5
E8
330
1E
100
AcDbEntity
  8
ﾚｲﾔ1
  6
Continuous
 62
     5
100
AcDbLine
 10
303.9000000000001
 20
-368.4000000000001
 30
0.0
 11
303.9000000000001
 21
-338.4
 31
0.0
  0
LINE
  5
E9
330
1E
100
AcDbEntity
  8
ﾚｲﾔ1
  6
Continuous
 62
     5
100
AcDbLine
 10
303.9000000000001
 20
-338.4
 30
0.0
 11
273.9
 21
-338.4
 31
0.0
  0
LINE
  5
EA
330
1E
100
AcDbEntity
  8
ﾚｲﾔ1
  6
Continuous
 62
     5
100
AcDbLine
 10
303.9000000000001
 20
-338.4
 30
0.0
 11
303.9000000000001
 21
-368.4000000000001
 31
0.0
  0
LINE
  5
EB
330
1E
100
AcDbEntity
  8
ﾚｲﾔ1
  6
Continuous
 62
     5
100
AcDbLine
 10
303.9000000000001
 20
-368.4000000000001
 30
0.0
 11
345.9
 21
-368.4000000000001
 31
0.0
  0
LINE
  5
EC
330
1E
100
AcDbEntity
  8
ﾚｲﾔ1
  6
Continuous
 62
     5
100
AcDbLine
 10
345.9
 20
-368.4000000000001
 30
0.0
 11
345.9
 21
-338.4
 31
0.0
  0
LINE
  5
ED
330
1E
100
AcDbEntity
  8
ﾚｲﾔ1
  6
Continuous
 62
     5
100
AcDbLine
 10
345.9
 20
-338.4
 30
0.0
 11
303.9000000000001
 21
-338.4
 31
0.0
  0
LINE
  5
EE
330
1E
100
AcDbEntity
  8
ﾚｲﾔ1
  6
Continuous
 62
     5
100
AcDbLine
 10
345.9
 20
-338.4
 30
0.0
 11
345.9
 21
-368.4000000000001
 31
0.0
  0
LINE
  5
EF
330
1E
100
AcDbEntity
  8
ﾚｲﾔ1
  6
Continuous
 62
     5
100
AcDbLine
 10
345.9
 20
-368.4000000000001
 30
0.0
 11
387.9
 21
-368.4000000000001
 31
0.0
  0
LINE
  5
F0
330
1E
100
AcDbEntity
  8
ﾚｲﾔ1
  6
Continuous
 62
     5
100
AcDbLine
 10
387.9
 20
-368.4000000000001
 30
0.0
 11
387.9
 21
-338.4
 31
0.0
  0
LINE
  5
F1
330
1E
100
AcDbEntity
  8
ﾚｲﾔ1
  6
Continuous
 62
     5
100
AcDbLine
 10
387.9
 20
-338.4
 30
0.0
 11
345.9
 21
-338.4
 31
0.0
  0
LINE
  5
F2
330
1E
100
AcDbEntity
  8
ﾚｲﾔ1
  6
Continuous
 62
     5
100
AcDbLine
 10
387.9
 20
-338.4
 30
0.0
 11
387.9
 21
-368.4000000000001
 31
0.0
  0
LINE
  5
F3
330
1E
100
AcDbEntity
  8
ﾚｲﾔ1
  6
Continuous
 62
     5
100
AcDbLine
 10
387.9
 20
-368.4000000000001
 30
0.0
 11
420.9
 21
-368.4000000000001
 31
0.0
  0
LINE
  5
F4
330
1E
100
AcDbEntity
  8
ﾚｲﾔ1
  6
Continuous
 62
     5
100
AcDbLine
 10
420.9
 20
-368.4000000000001
 30
0.0
 11
420.9
 21
-338.4
 31
0.0
  0
LINE
  5
F5
330
1E
100
AcDbEntity
  8
ﾚｲﾔ1
  6
Continuous
 62
     5
100
AcDbLine
 10
420.9
 20
-338.4
 30
0.0
 11
387.9
 21
-338.4
 31
0.0
  0
LINE
  5
F6
330
1E
100
AcDbEntity
  8
ﾚｲﾔ1
  6
Continuous
 62
     5
100
AcDbLine
 10
420.9
 20
-338.4
 30
0.0
 11
420.9
 21
-368.4000000000001
 31
0.0
  0
LINE
  5
F7
330
1E
100
AcDbEntity
  8
ﾚｲﾔ1
  6
Continuous
 62
     5
100
AcDbLine
 10
420.9
 20
-368.4000000000001
 30
0.0
 11
432.9
 21
-368.4000000000001
 31
0.0
  0
LINE
  5
F8
330
1E
100
AcDbEntity
  8
ﾚｲﾔ1
  6
Continuous
 62
     5
100
AcDbLine
 10
432.9
 20
-368.4000000000001
 30
0.0
 11
432.9
 21
-338.4
 31
0.0
  0
LINE
  5
F9
330
1E
100
AcDbEntity
  8
ﾚｲﾔ1
  6
Continuous
 62
     5
100
AcDbLine
 10
432.9
 20
-338.4
 30
0.0
 11
420.9
 21
-338.4
 31
0.0
  0
LINE
  5
FA
330
1E
100
AcDbEntity
  8
ﾚｲﾔ1
  6
Continuous
 62
     5
100
AcDbLine
 10
432.9
 20
-338.4
 30
0.0
 11
432.9
 21
-368.4000000000001
 31
0.0
  0
LINE
  5
FB
330
1E
100
AcDbEntity
  8
ﾚｲﾔ1
  6
Continuous
 62
     5
100
AcDbLine
 10
432.9
 20
-368.4000000000001
 30
0.0
 11
558.8999999999999
 21
-368.4000000000001
 31
0.0
  0
LINE
  5
FC
330
1E
100
AcDbEntity
  8
ﾚｲﾔ1
  6
Continuous
 62
     5
100
AcDbLine
 10
558.8999999999999
 20
-368.4000000000001
 30
0.0
 11
558.8999999999999
 21
-338.4
 31
0.0
  0
LINE
  5
FD
330
1E
100
AcDbEntity
  8
ﾚｲﾔ1
  6
Continuous
 62
     5
100
AcDbLine
 10
558.8999999999999
 20
-338.4
 30
0.0
 11
432.9
 21
-338.4
 31
0.0
  0
LINE
  5
FE
330
1E
100
AcDbEntity
  8
ﾚｲﾔ1
  6
Continuous
 62
     5
100
AcDbLine
 10
183.9
 20
-338.4
 30
0.0
 11
183.9
 21
-323.4
 31
0.0
  0
LINE
  5
FF
330
1E
100
AcDbEntity
  8
ﾚｲﾔ1
  6
Continuous
 62
     5
100
AcDbLine
 10
183.9
 20
-323.4
 30
0.0
 11
345.9
 21
-323.4
 31
0.0
  0
LINE
  5
100
330
1E
100
AcDbEntity
  8
ﾚｲﾔ1
  6
Continuous
 62
     5
100
AcDbLine
 10
345.9
 20
-323.4
 30
0.0
 11
345.9
 21
-338.4
 31
0.0
  0
LINE
  5
101
330
1E
100
AcDbEntity
  8
ﾚｲﾔ1
  6
Continuous
 62
     5
100
AcDbLine
 10
345.9
 20
-338.4
 30
0.0
 11
183.9
 21
-338.4
 31
0.0
  0
LINE
  5
102
330
1E
100
AcDbEntity
  8
ﾚｲﾔ1
  6
Continuous
 62
     5
100
AcDbLine
 10
183.9
 20
-323.4
 30
0.0
 11
183.9
 21
-308.4
 31
0.0
  0
LINE
  5
103
330
1E
100
AcDbEntity
  8
ﾚｲﾔ1
  6
Continuous
 62
     5
100
AcDbLine
 10
183.9
 20
-308.4
 30
0.0
 11
345.9
 21
-308.4
 31
0.0
  0
LINE
  5
104
330
1E
100
AcDbEntity
  8
ﾚｲﾔ1
  6
Continuous
 62
     5
100
AcDbLine
 10
345.9
 20
-308.4
 30
0.0
 11
345.9
 21
-323.4
 31
0.0
  0
LINE
  5
105
330
1E
100
AcDbEntity
  8
ﾚｲﾔ1
  6
Continuous
 62
     5
100
AcDbLine
 10
345.9
 20
-323.4
 30
0.0
 11
183.9
 21
-323.4
 31
0.0
  0
LINE
  5
106
330
1E
100
AcDbEntity
  8
ﾚｲﾔ1
  6
Continuous
 62
     5
100
AcDbLine
 10
183.9
 20
-308.4
 30
0.0
 11
183.9
 21
-293.4000000000001
 31
0.0
  0
LINE
  5
107
330
1E
100
AcDbEntity
  8
ﾚｲﾔ1
  6
Continuous
 62
     5
100
AcDbLine
 10
183.9
 20
-293.4000000000001
 30
0.0
 11
345.9
 21
-293.4000000000001
 31
0.0
  0
LINE
  5
108
330
1E
100
AcDbEntity
  8
ﾚｲﾔ1
  6
Continuous
 62
     5
100
AcDbLine
 10
345.9
 20
-293.4000000000001
 30
0.0
 11
345.9
 21
-308.4
 31
0.0
  0
LINE
  5
109
330
1E
100
AcDbEntity
  8
ﾚｲﾔ1
  6
Continuous
 62
     5
100
AcDbLine
 10
345.9
 20
-308.4
 30
0.0
 11
183.9
 21
-308.4
 31
0.0
  0
LINE
  5
10A
330
1E
100
AcDbEntity
  8
ﾚｲﾔ1
  6
Continuous
 62
     5
100
AcDbLine
 10
345.9
 20
-293.4000000000001
 30
0.0
 11
345.9
 21
-338.4
 31
0.0
  0
LINE
  5
10B
330
1E
100
AcDbEntity
  8
ﾚｲﾔ1
  6
Continuous
 62
     5
100
AcDbLine
 10
345.9
 20
-338.4
 30
0.0
 11
360.9
 21
-338.4
 31
0.0
  0
LINE
  5
10C
330
1E
100
AcDbEntity
  8
ﾚｲﾔ1
  6
Continuous
 62
     5
100
AcDbLine
 10
360.9
 20
-338.4
 30
0.0
 11
360.9
 21
-293.4000000000001
 31
0.0
  0
LINE
  5
10D
330
1E
100
AcDbEntity
  8
ﾚｲﾔ1
  6
Continuous
 62
     5
100
AcDbLine
 10
360.9
 20
-293.4000000000001
 30
0.0
 11
345.9
 21
-293.4000000000001
 31
0.0
  0
LINE
  5
10E
330
1E
100
AcDbEntity
  8
ﾚｲﾔ1
  6
Continuous
 62
     5
100
AcDbLine
 10
360.9
 20
-338.4
 30
0.0
 11
360.9
 21
-293.4000000000001
 31
0.0
  0
LINE
  5
10F
330
1E
100
AcDbEntity
  8
ﾚｲﾔ1
  6
Continuous
 62
     5
100
AcDbLine
 10
360.9
 20
-293.4000000000001
 30
0.0
 11
558.8999999999999
 21
-293.4000000000001
 31
0.0
  0
LINE
  5
110
330
1E
100
AcDbEntity
  8
ﾚｲﾔ1
  6
Continuous
 62
     5
100
AcDbLine
 10
558.8999999999999
 20
-293.4000000000001
 30
0.0
 11
558.8999999999999
 21
-338.4
 31
0.0
  0
LINE
  5
111
330
1E
100
AcDbEntity
  8
ﾚｲﾔ1
  6
Continuous
 62
     5
100
AcDbLine
 10
558.8999999999999
 20
-338.4
 30
0.0
 11
360.9
 21
-338.4
 31
0.0
  0
LINE
  5
112
330
1E
100
AcDbEntity
  8
ﾚｲﾔ1
  6
Continuous
 62
     5
100
AcDbLine
 10
183.9
 20
-293.4000000000001
 30
0.0
 11
183.9
 21
-233.4
 31
0.0
  0
LINE
  5
113
330
1E
100
AcDbEntity
  8
ﾚｲﾔ1
  6
Continuous
 62
     5
100
AcDbLine
 10
183.9
 20
-233.4
 30
0.0
 11
558.8999999999999
 21
-233.4
 31
0.0
  0
LINE
  5
114
330
1E
100
AcDbEntity
  8
ﾚｲﾔ1
  6
Continuous
 62
     5
100
AcDbLine
 10
558.8999999999999
 20
-233.4
 30
0.0
 11
558.8999999999999
 21
-293.4000000000001
 31
0.0
  0
LINE
  5
115
330
1E
100
AcDbEntity
  8
ﾚｲﾔ1
  6
Continuous
 62
     5
100
AcDbLine
 10
558.8999999999999
 20
-293.4000000000001
 30
0.0
 11
183.9
 21
-293.4000000000001
 31
0.0
  0
LINE
  5
116
330
1E
100
AcDbEntity
  8
ﾚｲﾔ1
  6
Continuous
 62
     5
100
AcDbLine
 10
183.9
 20
-248.4
 30
0.0
 11
558.8999999999999
 21
-248.4
 31
0.0
  0
LINE
  5
117
330
1E
100
AcDbEntity
  8
ﾚｲﾔ1
  6
Continuous
 62
     5
100
AcDbLine
 10
183.9
 20
-263.4
 30
0.0
 11
558.8999999999999
 21
-263.4
 31
0.0
  0
LINE
  5
118
330
1E
100
AcDbEntity
  8
ﾚｲﾔ1
  6
Continuous
 62
     5
100
AcDbLine
 10
183.9
 20
-278.4
 30
0.0
 11
558.8999999999999
 21
-278.4
 31
0.0
  0
LINE
  5
119
330
1E
100
AcDbEntity
  8
ﾚｲﾔ1
  6
Continuous
 62
     5
100
AcDbLine
 10
204.9
 20
-233.4
 30
0.0
 11
204.9
 21
-323.4
 31
0.0
  0
LINE
  5
11A
330
1E
100
AcDbEntity
  8
ﾚｲﾔ1
  6
Continuous
 62
     5
100
AcDbLine
 10
228.9
 20
-233.4
 30
0.0
 11
228.9
 21
-323.4
 31
0.0
  0
LINE
  5
11B
330
1E
100
AcDbEntity
  8
ﾚｲﾔ1
  6
Continuous
 62
     5
100
AcDbLine
 10
324.9
 20
-233.4
 30
0.0
 11
324.9
 21
-323.4
 31
0.0
  0
LINE
  5
11C
330
1E
100
AcDbEntity
  8
ﾚｲﾔ1
  6
Continuous
 62
     5
100
AcDbLine
 10
345.9
 20
-293.4000000000001
 30
0.0
 11
345.9
 21
-233.4
 31
0.0
  0
LINE
  5
11D
330
1E
100
AcDbEntity
  8
ﾚｲﾔ1
  6
Continuous
 62
     5
100
AcDbLine
 10
366.9
 20
-293.4000000000001
 30
0.0
 11
366.9
 21
-233.4
 31
0.0
  0
LINE
  5
11E
330
1E
100
AcDbEntity
  8
ﾚｲﾔ1
  6
Continuous
 62
     5
100
AcDbLine
 10
420.9
 20
-293.4000000000001
 30
0.0
 11
420.9
 21
-233.4
 31
0.0
  0
LINE
  5
11F
330
1E
100
AcDbEntity
  8
ﾚｲﾔ1
  6
Continuous
 62
     5
100
AcDbLine
 10
444.9
 20
-233.4
 30
0.0
 11
444.9
 21
-293.4000000000001
 31
0.0
  0
LINE
  5
120
330
1E
100
AcDbEntity
  8
ﾚｲﾔ1
  6
Continuous
 62
     5
100
AcDbLine
 10
474.9
 20
-233.4
 30
0.0
 11
474.9
 21
-293.4000000000001
 31
0.0
  0
LINE
  5
121
330
1E
100
AcDbEntity
  8
ﾚｲﾔ1
  6
Continuous
 62
     5
100
AcDbLine
 10
213.9
 20
-323.4
 30
0.0
 11
213.9
 21
-368.4000000000001
 31
0.0
  0
LINE
  5
122
330
1E
100
AcDbEntity
  8
ﾚｲﾔ1
  6
Continuous
 62
     5
100
AcDbLine
 10
243.9
 20
-323.4
 30
0.0
 11
243.9
 21
-368.4000000000001
 31
0.0
  0
LINE
  5
123
330
1E
100
AcDbEntity
  8
ﾚｲﾔ1
  6
Continuous
 62
     5
100
AcDbLine
 10
273.9
 20
-323.4
 30
0.0
 11
273.9
 21
-368.4000000000001
 31
0.0
  0
LINE
  5
124
330
1E
100
AcDbEntity
  8
ﾚｲﾔ1
  6
Continuous
 62
     5
100
AcDbLine
 10
303.9000000000001
 20
-323.4
 30
0.0
 11
303.9000000000001
 21
-368.4000000000001
 31
0.0
  0
LINE
  5
125
330
1E
100
AcDbEntity
  8
ﾚｲﾔ1
  6
Continuous
 62
     5
100
AcDbLine
 10
303.9000000000001
 20
-353.4
 30
0.0
 11
420.9
 21
-353.4
 31
0.0
  0
LINE
  5
126
330
1E
100
AcDbEntity
  8
ﾚｲﾔ1
  6
Continuous
 62
     5
100
AcDbLine
 10
369.9
 20
-317.7
 30
0.0
 11
549.3000000000001
 21
-317.7
 31
0.0
  0
LINE
  5
127
330
1E
100
AcDbEntity
  8
ﾚｲﾔ1
  6
Continuous
 62
     5
100
AcDbLine
 10
-556.5
 20
367.5
 30
0.0
 11
558.8999999999999
 21
367.5
 31
0.0
  0
LINE
  5
128
330
1E
100
AcDbEntity
  8
ﾚｲﾔ1
  6
Continuous
 62
     5
100
AcDbLine
 10
558.8999999999999
 20
-368.4000000000001
 30
0.0
 11
-556.5
 21
-368.4000000000001
 31
0.0
  0
LINE
  5
129
330
1E
100
AcDbEntity
  8
ﾚｲﾔ1
  6
Continuous
 62
     5
100
AcDbLine
 10
-556.5
 20
-368.4000000000001
 30
0.0
 11
-556.5
 21
367.5
 31
0.0
  0
LINE
  5
12A
330
1E
100
AcDbEntity
  8
ﾚｲﾔ1
  6
Continuous
 62
     5
100
AcDbLine
 10
558.8999999999999
 20
367.5
 30
0.0
 11
558.8999999999999
 21
-368.4000000000001
 31
0.0
  0
LINE
  5
707
330
1E
100
AcDbEntity
  8
ﾚｲﾔ1
  6
Continuous
100
AcDbLine
 10
346.6190060899216
 20
126.0553213769624
 30
0.0
 11
346.6190060899216
 21
131.0803213769624
 31
0.0
  0
LINE
  5
708
330
1E
100
AcDbEntity
  8
ﾚｲﾔ1
  6
Continuous
100
AcDbLine
 10
346.6190060899216
 20
131.0803213769624
 30
0.0
 11
346.3940060899217
 21
132.8803213769624
 31
0.0
  0
LINE
  5
709
330
1E
100
AcDbEntity
  8
ﾚｲﾔ1
  6
Continuous
100
AcDbLine
 10
346.3940060899217
 20
132.8803213769624
 30
0.0
 11
345.7940060899217
 21
134.2303213769624
 31
0.0
  0
LINE
  5
70A
330
1E
100
AcDbEntity
  8
ﾚｲﾔ1
  6
Continuous
100
AcDbLine
 10
345.7940060899217
 20
134.2303213769624
 30
0.0
 11
344.7440060899217
 21
135.2803213769624
 31
0.0
  0
LINE
  5
70B
330
1E
100
AcDbEntity
  8
ﾚｲﾔ1
  6
Continuous
100
AcDbLine
 10
344.7440060899217
 20
135.2803213769624
 30
0.0
 11
343.3940060899217
 21
135.8803213769624
 31
0.0
  0
LINE
  5
70C
330
1E
100
AcDbEntity
  8
ﾚｲﾔ1
  6
Continuous
100
AcDbLine
 10
343.3940060899217
 20
135.8803213769624
 30
0.0
 11
341.5940060899217
 21
136.1053213769624
 31
0.0
  0
LINE
  5
70D
330
1E
100
AcDbEntity
  8
ﾚｲﾔ1
  6
Continuous
100
AcDbLine
 10
341.5940060899217
 20
136.1053213769624
 30
0.0
 11
336.5690060899216
 21
136.1053213769624
 31
0.0
  0
LINE
  5
70E
330
1E
100
AcDbEntity
  8
ﾚｲﾔ1
  6
Continuous
100
AcDbLine
 10
246.5690060899217
 20
136.1053213769624
 30
0.0
 11
241.5440060899217
 21
136.1053213769624
 31
0.0
  0
LINE
  5
70F
330
1E
100
AcDbEntity
  8
ﾚｲﾔ1
  6
Continuous
100
AcDbLine
 10
241.5440060899217
 20
136.1053213769624
 30
0.0
 11
239.7440060899216
 21
135.8803213769624
 31
0.0
  0
LINE
  5
710
330
1E
100
AcDbEntity
  8
ﾚｲﾔ1
  6
Continuous
100
AcDbLine
 10
239.7440060899216
 20
135.8803213769624
 30
0.0
 11
238.3190060899217
 21
135.2803213769624
 31
0.0
  0
LINE
  5
711
330
1E
100
AcDbEntity
  8
ﾚｲﾔ1
  6
Continuous
100
AcDbLine
 10
238.3190060899217
 20
135.2803213769624
 30
0.0
 11
237.3440060899217
 21
134.2303213769624
 31
0.0
  0
LINE
  5
712
330
1E
100
AcDbEntity
  8
ﾚｲﾔ1
  6
Continuous
100
AcDbLine
 10
237.3440060899217
 20
134.2303213769624
 30
0.0
 11
236.7440060899216
 21
132.8803213769624
 31
0.0
  0
LINE
  5
713
330
1E
100
AcDbEntity
  8
ﾚｲﾔ1
  6
Continuous
100
AcDbLine
 10
236.7440060899216
 20
132.8803213769624
 30
0.0
 11
236.5940060899216
 21
131.0803213769624
 31
0.0
  0
LINE
  5
714
330
1E
100
AcDbEntity
  8
ﾚｲﾔ1
  6
Continuous
100
AcDbLine
 10
236.5940060899216
 20
131.0803213769624
 30
0.0
 11
236.5940060899216
 21
126.0553213769624
 31
0.0
  0
LINE
  5
715
330
1E
100
AcDbEntity
  8
ﾚｲﾔ1
  6
Continuous
100
AcDbLine
 10
201.4940060899216
 20
136.1053213769624
 30
0.0
 11
206.5190060899217
 21
136.1053213769624
 31
0.0
  0
LINE
  5
716
330
1E
100
AcDbEntity
  8
ﾚｲﾔ1
  6
Continuous
100
AcDbLine
 10
206.5190060899217
 20
136.1053213769624
 30
0.0
 11
208.3190060899216
 21
135.8803213769624
 31
0.0
  0
LINE
  5
717
330
1E
100
AcDbEntity
  8
ﾚｲﾔ1
  6
Continuous
100
AcDbLine
 10
208.3190060899216
 20
135.8803213769624
 30
0.0
 11
209.6690060899216
 21
135.2803213769624
 31
0.0
  0
LINE
  5
718
330
1E
100
AcDbEntity
  8
ﾚｲﾔ1
  6
Continuous
100
AcDbLine
 10
209.6690060899216
 20
135.2803213769624
 30
0.0
 11
210.7190060899216
 21
134.2303213769624
 31
0.0
  0
LINE
  5
719
330
1E
100
AcDbEntity
  8
ﾚｲﾔ1
  6
Continuous
100
AcDbLine
 10
210.7190060899216
 20
134.2303213769624
 30
0.0
 11
211.3190060899217
 21
132.8803213769624
 31
0.0
  0
LINE
  5
71A
330
1E
100
AcDbEntity
  8
ﾚｲﾔ1
  6
Continuous
100
AcDbLine
 10
211.3190060899217
 20
132.8803213769624
 30
0.0
 11
211.5440060899217
 21
131.0803213769624
 31
0.0
  0
LINE
  5
71B
330
1E
100
AcDbEntity
  8
ﾚｲﾔ1
  6
Continuous
100
AcDbLine
 10
211.5440060899217
 20
131.0803213769624
 30
0.0
 11
211.5440060899217
 21
126.0553213769624
 31
0.0
  0
LINE
  5
71C
330
1E
100
AcDbEntity
  8
ﾚｲﾔ1
  6
Continuous
100
AcDbLine
 10
111.4940060899216
 20
136.1053213769624
 30
0.0
 11
106.4690060899216
 21
136.1053213769624
 31
0.0
  0
LINE
  5
71D
330
1E
100
AcDbEntity
  8
ﾚｲﾔ1
  6
Continuous
100
AcDbLine
 10
106.4690060899216
 20
136.1053213769624
 30
0.0
 11
104.6690060899216
 21
135.8803213769624
 31
0.0
  0
LINE
  5
71E
330
1E
100
AcDbEntity
  8
ﾚｲﾔ1
  6
Continuous
100
AcDbLine
 10
104.6690060899216
 20
135.8803213769624
 30
0.0
 11
103.2440060899216
 21
135.2803213769624
 31
0.0
  0
LINE
  5
71F
330
1E
100
AcDbEntity
  8
ﾚｲﾔ1
  6
Continuous
100
AcDbLine
 10
103.2440060899216
 20
135.2803213769624
 30
0.0
 11
102.2690060899216
 21
134.2303213769624
 31
0.0
  0
LINE
  5
720
330
1E
100
AcDbEntity
  8
ﾚｲﾔ1
  6
Continuous
100
AcDbLine
 10
102.2690060899216
 20
134.2303213769624
 30
0.0
 11
101.6690060899216
 21
132.8803213769624
 31
0.0
  0
LINE
  5
721
330
1E
100
AcDbEntity
  8
ﾚｲﾔ1
  6
Continuous
100
AcDbLine
 10
101.6690060899216
 20
132.8803213769624
 30
0.0
 11
101.5190060899216
 21
131.0803213769624
 31
0.0
  0
LINE
  5
722
330
1E
100
AcDbEntity
  8
ﾚｲﾔ1
  6
Continuous
100
AcDbLine
 10
376.6190060899216
 20
136.1053213769624
 30
0.0
 11
374.7440060899216
 21
134.7553213769624
 31
0.0
  0
LINE
  5
723
330
1E
100
AcDbEntity
  8
ﾚｲﾔ1
  6
Continuous
100
AcDbLine
 10
374.7440060899216
 20
134.7553213769624
 30
0.0
 11
374.0690060899217
 21
134.1553213769624
 31
0.0
  0
LINE
  5
724
330
1E
100
AcDbEntity
  8
ﾚｲﾔ1
  6
Continuous
100
AcDbLine
 10
374.0690060899217
 20
134.1553213769624
 30
0.0
 11
373.5440060899216
 21
133.5553213769624
 31
0.0
  0
LINE
  5
725
330
1E
100
AcDbEntity
  8
ﾚｲﾔ1
  6
Continuous
100
AcDbLine
 10
373.5440060899216
 20
133.5553213769624
 30
0.0
 11
373.0940060899217
 21
132.9553213769624
 31
0.0
  0
LINE
  5
726
330
1E
100
AcDbEntity
  8
ﾚｲﾔ1
  6
Continuous
100
AcDbLine
 10
373.0940060899217
 20
132.9553213769624
 30
0.0
 11
372.7940060899217
 21
132.2803213769624
 31
0.0
  0
LINE
  5
727
330
1E
100
AcDbEntity
  8
ﾚｲﾔ1
  6
Continuous
100
AcDbLine
 10
372.7940060899217
 20
132.2803213769624
 30
0.0
 11
372.6440060899217
 21
131.6053213769624
 31
0.0
  0
LINE
  5
728
330
1E
100
AcDbEntity
  8
ﾚｲﾔ1
  6
Continuous
100
AcDbLine
 10
372.6440060899217
 20
131.6053213769624
 30
0.0
 11
372.4940060899216
 21
130.8553213769624
 31
0.0
  0
LINE
  5
729
330
1E
100
AcDbEntity
  8
ﾚｲﾔ1
  6
Continuous
100
AcDbLine
 10
372.4940060899216
 20
130.8553213769624
 30
0.0
 11
372.3440060899217
 21
130.1053213769624
 31
0.0
  0
LINE
  5
72A
330
1E
100
AcDbEntity
  8
ﾚｲﾔ1
  6
Continuous
100
AcDbLine
 10
372.3440060899217
 20
130.1053213769624
 30
0.0
 11
372.1940060899216
 21
129.3553213769624
 31
0.0
  0
LINE
  5
72B
330
1E
100
AcDbEntity
  8
ﾚｲﾔ1
  6
Continuous
100
AcDbLine
 10
372.1940060899216
 20
129.3553213769624
 30
0.0
 11
372.0440060899217
 21
128.6053213769624
 31
0.0
  0
LINE
  5
72C
330
1E
100
AcDbEntity
  8
ﾚｲﾔ1
  6
Continuous
100
AcDbLine
 10
372.0440060899217
 20
128.6053213769624
 30
0.0
 11
371.9690060899217
 21
127.9303213769624
 31
0.0
  0
LINE
  5
72D
330
1E
100
AcDbEntity
  8
ﾚｲﾔ1
  6
Continuous
100
AcDbLine
 10
371.9690060899217
 20
127.9303213769624
 30
0.0
 11
371.5940060899217
 21
126.0553213769624
 31
0.0
  0
LINE
  5
72E
330
1E
100
AcDbEntity
  8
ﾚｲﾔ1
  6
Continuous
100
AcDbLine
 10
56.59400608992164
 20
183.5803213769624
 30
0.0
 11
56.59400608992164
 21
76.10532137696245
 31
0.0
  0
LINE
  5
72F
330
1E
100
AcDbEntity
  8
ﾚｲﾔ1
  6
Continuous
100
AcDbLine
 10
56.59400608992164
 20
183.5803213769624
 30
0.0
 11
376.6190060899216
 21
183.5803213769624
 31
0.0
  0
LINE
  5
730
330
1E
100
AcDbEntity
  8
ﾚｲﾔ1
  6
Continuous
100
AcDbLine
 10
376.6190060899216
 20
183.5803213769624
 30
0.0
 11
376.6190060899216
 21
136.1053213769624
 31
0.0
  0
LINE
  5
731
330
1E
100
AcDbEntity
  8
ﾚｲﾔ1
  6
Continuous
100
AcDbLine
 10
83.59400608992164
 20
183.5803213769624
 30
0.0
 11
83.59400608992164
 21
163.5553213769624
 31
0.0
  0
LINE
  5
732
330
1E
100
AcDbEntity
  8
ﾚｲﾔ1
  6
Continuous
100
AcDbLine
 10
83.59400608992164
 20
163.5553213769624
 30
0.0
 11
86.59400608992163
 21
163.5553213769624
 31
0.0
  0
LINE
  5
733
330
1E
100
AcDbEntity
  8
ﾚｲﾔ1
  6
Continuous
100
AcDbLine
 10
86.59400608992163
 20
163.5553213769624
 30
0.0
 11
86.59400608992163
 21
76.10532137696245
 31
0.0
  0
LINE
  5
734
330
1E
100
AcDbEntity
  8
ﾚｲﾔ1
  6
Continuous
100
AcDbLine
 10
56.59400608992164
 20
128.6053213769624
 30
0.0
 11
86.59400608992163
 21
128.6053213769624
 31
0.0
  0
LINE
  5
735
330
1E
100
AcDbEntity
  8
ﾚｲﾔ1
  6
Continuous
100
AcDbLine
 10
86.59400608992163
 20
159.2053213769624
 30
0.0
 11
376.6190060899216
 21
159.2053213769624
 31
0.0
  0
LINE
  5
736
330
1E
100
AcDbEntity
  8
ﾚｲﾔ1
  6
Continuous
100
AcDbLine
 10
111.4940060899216
 20
136.1053213769624
 30
0.0
 11
201.4940060899216
 21
136.1053213769624
 31
0.0
  0
LINE
  5
737
330
1E
100
AcDbEntity
  8
ﾚｲﾔ1
  6
Continuous
100
AcDbLine
 10
246.5690060899217
 20
136.1053213769624
 30
0.0
 11
336.5690060899216
 21
136.1053213769624
 31
0.0
  0
LINE
  5
738
330
1E
100
AcDbEntity
  8
ﾚｲﾔ1
  6
Continuous
100
AcDbLine
 10
211.5440060899217
 20
126.0553213769624
 30
0.0
 11
211.5440060899217
 21
76.10532137696245
 31
0.0
  0
LINE
  5
739
330
1E
100
AcDbEntity
  8
ﾚｲﾔ1
  6
Continuous
100
AcDbLine
 10
236.5940060899216
 20
126.0553213769624
 30
0.0
 11
236.5940060899216
 21
76.10532137696245
 31
0.0
  0
LINE
  5
73A
330
1E
100
AcDbEntity
  8
ﾚｲﾔ1
  6
Continuous
100
AcDbLine
 10
346.6190060899216
 20
126.0553213769624
 30
0.0
 11
346.6190060899216
 21
76.10532137696245
 31
0.0
  0
LINE
  5
73B
330
1E
100
AcDbEntity
  8
ﾚｲﾔ1
  6
Continuous
100
AcDbLine
 10
371.5940060899217
 20
126.0553213769624
 30
0.0
 11
371.5940060899217
 21
76.10532137696245
 31
0.0
  0
LINE
  5
73C
330
1E
100
AcDbEntity
  8
ﾚｲﾔ1
  6
Continuous
100
AcDbLine
 10
101.5190060899216
 20
131.0803213769624
 30
0.0
 11
101.5190060899216
 21
76.10532137696245
 31
0.0
  0
LINE
  5
73D
330
1E
100
AcDbEntity
  8
ﾚｲﾔ1
  6
Continuous
100
AcDbLine
 10
346.6190060899216
 20
26.15532137696244
 30
0.0
 11
346.6190060899216
 21
21.13032137696245
 31
0.0
  0
LINE
  5
73E
330
1E
100
AcDbEntity
  8
ﾚｲﾔ1
  6
Continuous
100
AcDbLine
 10
346.6190060899216
 20
21.13032137696245
 30
0.0
 11
346.3940060899217
 21
19.33032137696244
 31
0.0
  0
LINE
  5
73F
330
1E
100
AcDbEntity
  8
ﾚｲﾔ1
  6
Continuous
100
AcDbLine
 10
346.3940060899217
 20
19.33032137696244
 30
0.0
 11
345.7940060899217
 21
17.98032137696248
 31
0.0
  0
LINE
  5
740
330
1E
100
AcDbEntity
  8
ﾚｲﾔ1
  6
Continuous
100
AcDbLine
 10
345.7940060899217
 20
17.98032137696248
 30
0.0
 11
344.7440060899217
 21
16.93032137696241
 31
0.0
  0
LINE
  5
741
330
1E
100
AcDbEntity
  8
ﾚｲﾔ1
  6
Continuous
100
AcDbLine
 10
344.7440060899217
 20
16.93032137696241
 30
0.0
 11
343.3940060899217
 21
16.33032137696244
 31
0.0
  0
LINE
  5
742
330
1E
100
AcDbEntity
  8
ﾚｲﾔ1
  6
Continuous
100
AcDbLine
 10
343.3940060899217
 20
16.33032137696244
 30
0.0
 11
341.5940060899217
 21
16.10532137696248
 31
0.0
  0
LINE
  5
743
330
1E
100
AcDbEntity
  8
ﾚｲﾔ1
  6
Continuous
100
AcDbLine
 10
341.5940060899217
 20
16.10532137696248
 30
0.0
 11
336.5690060899216
 21
16.10532137696248
 31
0.0
  0
LINE
  5
744
330
1E
100
AcDbEntity
  8
ﾚｲﾔ1
  6
Continuous
100
AcDbLine
 10
246.5690060899217
 20
16.10532137696248
 30
0.0
 11
241.5440060899217
 21
16.10532137696248
 31
0.0
  0
LINE
  5
745
330
1E
100
AcDbEntity
  8
ﾚｲﾔ1
  6
Continuous
100
AcDbLine
 10
241.5440060899217
 20
16.10532137696248
 30
0.0
 11
239.7440060899216
 21
16.33032137696244
 31
0.0
  0
LINE
  5
746
330
1E
100
AcDbEntity
  8
ﾚｲﾔ1
  6
Continuous
100
AcDbLine
 10
239.7440060899216
 20
16.33032137696244
 30
0.0
 11
238.3190060899217
 21
16.93032137696241
 31
0.0
  0
LINE
  5
747
330
1E
100
AcDbEntity
  8
ﾚｲﾔ1
  6
Continuous
100
AcDbLine
 10
238.3190060899217
 20
16.93032137696241
 30
0.0
 11
237.3440060899217
 21
17.98032137696248
 31
0.0
  0
LINE
  5
748
330
1E
100
AcDbEntity
  8
ﾚｲﾔ1
  6
Continuous
100
AcDbLine
 10
237.3440060899217
 20
17.98032137696248
 30
0.0
 11
236.7440060899216
 21
19.33032137696244
 31
0.0
  0
LINE
  5
749
330
1E
100
AcDbEntity
  8
ﾚｲﾔ1
  6
Continuous
100
AcDbLine
 10
236.7440060899216
 20
19.33032137696244
 30
0.0
 11
236.5940060899216
 21
21.13032137696245
 31
0.0
  0
LINE
  5
74A
330
1E
100
AcDbEntity
  8
ﾚｲﾔ1
  6
Continuous
100
AcDbLine
 10
236.5940060899216
 20
21.13032137696245
 30
0.0
 11
236.5940060899216
 21
26.15532137696244
 31
0.0
  0
LINE
  5
74B
330
1E
100
AcDbEntity
  8
ﾚｲﾔ1
  6
Continuous
100
AcDbLine
 10
201.4940060899216
 20
16.10532137696248
 30
0.0
 11
206.5190060899217
 21
16.10532137696248
 31
0.0
  0
LINE
  5
74C
330
1E
100
AcDbEntity
  8
ﾚｲﾔ1
  6
Continuous
100
AcDbLine
 10
206.5190060899217
 20
16.10532137696248
 30
0.0
 11
208.3190060899216
 21
16.33032137696244
 31
0.0
  0
LINE
  5
74D
330
1E
100
AcDbEntity
  8
ﾚｲﾔ1
  6
Continuous
100
AcDbLine
 10
208.3190060899216
 20
16.33032137696244
 30
0.0
 11
209.6690060899216
 21
16.93032137696241
 31
0.0
  0
LINE
  5
74E
330
1E
100
AcDbEntity
  8
ﾚｲﾔ1
  6
Continuous
100
AcDbLine
 10
209.6690060899216
 20
16.93032137696241
 30
0.0
 11
210.7190060899216
 21
17.98032137696248
 31
0.0
  0
LINE
  5
74F
330
1E
100
AcDbEntity
  8
ﾚｲﾔ1
  6
Continuous
100
AcDbLine
 10
210.7190060899216
 20
17.98032137696248
 30
0.0
 11
211.3190060899217
 21
19.33032137696244
 31
0.0
  0
LINE
  5
750
330
1E
100
AcDbEntity
  8
ﾚｲﾔ1
  6
Continuous
100
AcDbLine
 10
211.3190060899217
 20
19.33032137696244
 30
0.0
 11
211.5440060899217
 21
21.13032137696245
 31
0.0
  0
LINE
  5
751
330
1E
100
AcDbEntity
  8
ﾚｲﾔ1
  6
Continuous
100
AcDbLine
 10
211.5440060899217
 20
21.13032137696245
 30
0.0
 11
211.5440060899217
 21
26.15532137696244
 31
0.0
  0
LINE
  5
752
330
1E
100
AcDbEntity
  8
ﾚｲﾔ1
  6
Continuous
100
AcDbLine
 10
111.4940060899216
 20
16.10532137696248
 30
0.0
 11
106.4690060899216
 21
16.10532137696248
 31
0.0
  0
LINE
  5
753
330
1E
100
AcDbEntity
  8
ﾚｲﾔ1
  6
Continuous
100
AcDbLine
 10
106.4690060899216
 20
16.10532137696248
 30
0.0
 11
104.6690060899216
 21
16.33032137696244
 31
0.0
  0
LINE
  5
754
330
1E
100
AcDbEntity
  8
ﾚｲﾔ1
  6
Continuous
100
AcDbLine
 10
104.6690060899216
 20
16.33032137696244
 30
0.0
 11
103.2440060899216
 21
16.93032137696241
 31
0.0
  0
LINE
  5
755
330
1E
100
AcDbEntity
  8
ﾚｲﾔ1
  6
Continuous
100
AcDbLine
 10
103.2440060899216
 20
16.93032137696241
 30
0.0
 11
102.2690060899216
 21
17.98032137696248
 31
0.0
  0
LINE
  5
756
330
1E
100
AcDbEntity
  8
ﾚｲﾔ1
  6
Continuous
100
AcDbLine
 10
102.2690060899216
 20
17.98032137696248
 30
0.0
 11
101.6690060899216
 21
19.33032137696244
 31
0.0
  0
LINE
  5
757
330
1E
100
AcDbEntity
  8
ﾚｲﾔ1
  6
Continuous
100
AcDbLine
 10
101.6690060899216
 20
19.33032137696244
 30
0.0
 11
101.5190060899216
 21
21.13032137696245
 31
0.0
  0
LINE
  5
758
330
1E
100
AcDbEntity
  8
ﾚｲﾔ1
  6
Continuous
100
AcDbLine
 10
376.6190060899216
 20
16.10532137696248
 30
0.0
 11
374.7440060899216
 21
17.45532137696244
 31
0.0
  0
LINE
  5
759
330
1E
100
AcDbEntity
  8
ﾚｲﾔ1
  6
Continuous
100
AcDbLine
 10
374.7440060899216
 20
17.45532137696244
 30
0.0
 11
374.0690060899217
 21
18.05532137696241
 31
0.0
  0
LINE
  5
75A
330
1E
100
AcDbEntity
  8
ﾚｲﾔ1
  6
Continuous
100
AcDbLine
 10
374.0690060899217
 20
18.05532137696241
 30
0.0
 11
373.5440060899216
 21
18.65532137696243
 31
0.0
  0
LINE
  5
75B
330
1E
100
AcDbEntity
  8
ﾚｲﾔ1
  6
Continuous
100
AcDbLine
 10
373.5440060899216
 20
18.65532137696243
 30
0.0
 11
373.0940060899217
 21
19.25532137696245
 31
0.0
  0
LINE
  5
75C
330
1E
100
AcDbEntity
  8
ﾚｲﾔ1
  6
Continuous
100
AcDbLine
 10
373.0940060899217
 20
19.25532137696245
 30
0.0
 11
372.7940060899217
 21
19.93032137696241
 31
0.0
  0
LINE
  5
75D
330
1E
100
AcDbEntity
  8
ﾚｲﾔ1
  6
Continuous
100
AcDbLine
 10
372.7940060899217
 20
19.93032137696241
 30
0.0
 11
372.6440060899217
 21
20.60532137696248
 31
0.0
  0
LINE
  5
75E
330
1E
100
AcDbEntity
  8
ﾚｲﾔ1
  6
Continuous
100
AcDbLine
 10
372.6440060899217
 20
20.60532137696248
 30
0.0
 11
372.4940060899216
 21
21.35532137696248
 31
0.0
  0
LINE
  5
75F
330
1E
100
AcDbEntity
  8
ﾚｲﾔ1
  6
Continuous
100
AcDbLine
 10
372.4940060899216
 20
21.35532137696248
 30
0.0
 11
372.3440060899217
 21
22.10532137696248
 31
0.0
  0
LINE
  5
760
330
1E
100
AcDbEntity
  8
ﾚｲﾔ1
  6
Continuous
100
AcDbLine
 10
372.3440060899217
 20
22.10532137696248
 30
0.0
 11
372.1940060899216
 21
22.85532137696248
 31
0.0
  0
LINE
  5
761
330
1E
100
AcDbEntity
  8
ﾚｲﾔ1
  6
Continuous
100
AcDbLine
 10
372.1940060899216
 20
22.85532137696248
 30
0.0
 11
372.0440060899217
 21
23.60532137696248
 31
0.0
  0
LINE
  5
762
330
1E
100
AcDbEntity
  8
ﾚｲﾔ1
  6
Continuous
100
AcDbLine
 10
372.0440060899217
 20
23.60532137696248
 30
0.0
 11
371.9690060899217
 21
24.28032137696244
 31
0.0
  0
LINE
  5
763
330
1E
100
AcDbEntity
  8
ﾚｲﾔ1
  6
Continuous
100
AcDbLine
 10
371.9690060899217
 20
24.28032137696244
 30
0.0
 11
371.5940060899217
 21
26.15532137696244
 31
0.0
  0
LINE
  5
764
330
1E
100
AcDbEntity
  8
ﾚｲﾔ1
  6
Continuous
100
AcDbLine
 10
56.59400608992164
 20
-31.36967862303754
 30
0.0
 11
376.6190060899216
 21
-31.36967862303754
 31
0.0
  0
LINE
  5
765
330
1E
100
AcDbEntity
  8
ﾚｲﾔ1
  6
Continuous
100
AcDbLine
 10
376.6190060899216
 20
-31.36967862303754
 30
0.0
 11
376.6190060899216
 21
16.10532137696248
 31
0.0
  0
LINE
  5
766
330
1E
100
AcDbEntity
  8
ﾚｲﾔ1
  6
Continuous
100
AcDbLine
 10
111.4940060899216
 20
16.10532137696248
 30
0.0
 11
201.4940060899216
 21
16.10532137696248
 31
0.0
  0
LINE
  5
767
330
1E
100
AcDbEntity
  8
ﾚｲﾔ1
  6
Continuous
100
AcDbLine
 10
246.5690060899217
 20
16.10532137696248
 30
0.0
 11
336.5690060899216
 21
16.10532137696248
 31
0.0
  0
LINE
  5
768
330
1E
100
AcDbEntity
  8
ﾚｲﾔ1
  6
Continuous
100
AcDbLine
 10
211.5440060899217
 20
26.15532137696244
 30
0.0
 11
211.5440060899217
 21
76.10532137696245
 31
0.0
  0
LINE
  5
769
330
1E
100
AcDbEntity
  8
ﾚｲﾔ1
  6
Continuous
100
AcDbLine
 10
236.5940060899216
 20
26.15532137696244
 30
0.0
 11
236.5940060899216
 21
76.10532137696245
 31
0.0
  0
LINE
  5
76A
330
1E
100
AcDbEntity
  8
ﾚｲﾔ1
  6
Continuous
100
AcDbLine
 10
346.6190060899216
 20
26.15532137696244
 30
0.0
 11
346.6190060899216
 21
76.10532137696245
 31
0.0
  0
LINE
  5
76B
330
1E
100
AcDbEntity
  8
ﾚｲﾔ1
  6
Continuous
100
AcDbLine
 10
371.5940060899217
 20
26.15532137696244
 30
0.0
 11
371.5940060899217
 21
76.10532137696245
 31
0.0
  0
LINE
  5
76C
330
1E
100
AcDbEntity
  8
ﾚｲﾔ1
  6
Continuous
100
AcDbLine
 10
101.5190060899216
 20
21.13032137696245
 30
0.0
 11
101.5190060899216
 21
76.10532137696245
 31
0.0
  0
LINE
  5
76D
330
1E
100
AcDbEntity
  8
ﾚｲﾔ1
  6
Continuous
100
AcDbLine
 10
56.59400608992164
 20
-31.36967862303754
 30
0.0
 11
56.59400608992164
 21
76.10532137696245
 31
0.0
  0
LINE
  5
76E
330
1E
100
AcDbEntity
  8
ﾚｲﾔ1
  6
Continuous
100
AcDbLine
 10
83.59400608992164
 20
76.10532137696245
 30
0.0
 11
83.59400608992164
 21
-31.36967862303754
 31
0.0
  0
LINE
  5
8FF
330
1E
100
AcDbEntity
  8
ﾚｲﾔ1
  6
Continuous
100
AcDbLine
 10
-511.3478477411497
 20
-73.38871722867771
 30
0.0
 11
-348.1478477411498
 21
-73.38871722867771
 31
0.0
  0
LINE
  5
900
330
1E
100
AcDbEntity
  8
ﾚｲﾔ1
  6
Continuous
100
AcDbLine
 10
-511.3478477411497
 20
-76.98871722867767
 30
0.0
 11
-348.1478477411498
 21
-76.98871722867767
 31
0.0
  0
LINE
  5
901
330
1E
100
AcDbEntity
  8
ﾚｲﾔ1
  6
Continuous
 62
     5
100
AcDbLine
 10
566.3999999999999
 20
376.5
 30
0.0
 11
-565.5
 21
376.5
 31
0.0
  0
LINE
  5
902
330
1E
100
AcDbEntity
  8
ﾚｲﾔ1
  6
Continuous
 62
     5
100
AcDbLine
 10
-565.5
 20
376.5
 30
0.0
 11
-565.5
 21
-375.9
 31
0.0
  0
LINE
  5
903
330
1E
100
AcDbEntity
  8
ﾚｲﾔ1
  6
DASHDOT
 62
     9
100
AcDbLine
 10
-275.393837497166
 20
-51.69737673126792
 30
0.0
 11
-275.393837497166
 21
193.1026232687321
 31
0.0
  0
LINE
  5
904
330
1E
100
AcDbEntity
  8
ﾚｲﾔ1
  6
DASHDOT
 62
     9
100
AcDbLine
 10
-398.843837497166
 20
69.6526232687321
 30
0.0
 11
-151.643837497166
 21
69.6526232687321
 31
0.0
  0
LINE
  5
905
330
1E
100
AcDbEntity
  8
ﾚｲﾔ1
  6
DASHDOT
 62
     9
100
AcDbLine
 10
34.69400608992164
 20
76.10532137696245
 30
0.0
 11
398.2940060899217
 21
76.10532137696245
 31
0.0
  0
LINE
  5
906
330
1E
100
AcDbEntity
  8
ﾚｲﾔ1
  6
DASHED
 62
     9
100
AcDbLine
 10
86.59400608992163
 20
-6.994678623037543
 30
0.0
 11
376.6190060899216
 21
-6.994678623037543
 31
0.0
  0
LINE
  5
907
330
1E
100
AcDbEntity
  8
ﾚｲﾔ1
  6
DASHED
 62
     9
100
AcDbLine
 10
56.59400608992164
 20
23.60532137696248
 30
0.0
 11
86.59400608992163
 21
23.60532137696248
 31
0.0
  0
LINE
  5
908
330
1E
100
AcDbEntity
  8
ﾚｲﾔ1
  6
DASHED
 62
     9
100
AcDbLine
 10
83.59400608992164
 20
-11.34467862303756
 30
0.0
 11
86.59400608992163
 21
-11.34467862303756
 31
0.0
  0
LINE
  5
909
330
1E
100
AcDbEntity
  8
ﾚｲﾔ1
  6
DASHED
 62
     9
100
AcDbLine
 10
86.59400608992163
 20
76.10532137696245
 30
0.0
 11
86.59400608992163
 21
-11.34467862303756
 31
0.0
  0
LINE
  5
90A
330
1E
100
AcDbEntity
  8
ﾚｲﾔ1
  6
Continuous
 62
     5
100
AcDbLine
 10
566.3999999999999
 20
-375.9
 30
0.0
 11
-565.5
 21
-375.9
 31
0.0
  0
LINE
  5
90B
330
1E
100
AcDbEntity
  8
ﾚｲﾔ1
  6
Continuous
 62
     5
100
AcDbLine
 10
566.3999999999999
 20
376.5
 30
0.0
 11
566.3999999999999
 21
-375.9
 31
0.0
  0
CIRCLE
  5
D4C
330
1E
100
AcDbEntity
  8
ﾚｲﾔ1
100
AcDbCircle
 10
-369.9449534311313
 20
-221.42305571509
 30
0.0
 40
107.4999975
  0
CIRCLE
  5
D4D
330
1E
100
AcDbEntity
  8
ﾚｲﾔ1
100
AcDbCircle
 10
-369.9449534311313
 20
-221.42305571509
 30
0.0
 40
83.1500025
  0
LINE
  5
D4E
330
1E
100
AcDbEntity
  8
ﾚｲﾔ1
  6
DASHDOT
 62
     9
100
AcDbLine
 10
-379.5449534311313
 20
-221.42305571509
 30
0.0
 11
-360.3449534311313
 21
-221.42305571509
 31
0.0
  0
LINE
  5
D4F
330
1E
100
AcDbEntity
  8
ﾚｲﾔ1
  6
DASHDOT
 62
     9
100
AcDbLine
 10
-369.9449534311313
 20
-231.0230557150899
 30
0.0
 11
-369.9449534311313
 21
-211.8230557150899
 31
0.0
  0
LINE
  5
D50
330
1E
100
AcDbEntity
  8
ﾚｲﾔ1
  6
DASHDOT
 62
     9
100
AcDbLine
 10
-379.5449534311313
 20
-221.42305571509
 30
0.0
 11
-360.3449534311313
 21
-221.42305571509
 31
0.0
  0
LINE
  5
D51
330
1E
100
AcDbEntity
  8
ﾚｲﾔ1
  6
DASHDOT
 62
     9
100
AcDbLine
 10
-369.9449534311313
 20
-231.0230557150899
 30
0.0
 11
-369.9449534311313
 21
-211.8230557150899
 31
0.0
  0
LINE
  5
D52
330
1E
100
AcDbEntity
  8
ﾚｲﾔ1
  6
DASHDOT
 62
     9
100
AcDbLine
 10
-369.9449534311313
 20
-98.72305571508988
 30
0.0
 11
-369.9449534311313
 21
-347.12305571509
 31
0.0
  0
LINE
  5
D53
330
1E
100
AcDbEntity
  8
ﾚｲﾔ1
  6
DASHDOT
 62
     9
100
AcDbLine
 10
-496.9949534311313
 20
-221.42305571509
 30
0.0
 11
-244.9949534311313
 21
-221.42305571509
 31
0.0
  0
LINE
  5
D54
330
1E
100
AcDbEntity
  8
ﾚｲﾔ1
  6
Continuous
 62
     5
100
AcDbLine
 10
513.375
 20
-387.9
 30
0.0
 11
522.75
 21
-387.9
 31
0.0
  0
LINE
  5
D55
330
1E
100
AcDbEntity
  8
ﾚｲﾔ1
  6
Continuous
 62
     5
100
AcDbLine
 10
366.675
 20
-384.15
 30
0.0
 11
370.425
 21
-384.15
 31
0.0
  0
LINE
  5
D56
330
1E
100
AcDbEntity
  8
ﾚｲﾔ1
  6
Continuous
 62
     5
100
AcDbLine
 10
368.55
 20
-381.3
 30
0.0
 11
368.55
 21
-395.4
 31
0.0
  0
LINE
  5
D57
330
1E
100
AcDbEntity
  8
ﾚｲﾔ1
  6
Continuous
 62
     5
100
AcDbLine
 10
366.675
 20
-389.775
 30
0.0
 11
368.55
 21
-385.05
 31
0.0
  0
LINE
  5
D58
330
1E
100
AcDbEntity
  8
ﾚｲﾔ1
  6
Continuous
 62
     5
100
AcDbLine
 10
368.55
 20
-385.05
 30
0.0
 11
369.5250000000001
 21
-386.925
 31
0.0
  0
LINE
  5
D59
330
1E
100
AcDbEntity
  8
ﾚｲﾔ1
  6
Continuous
 62
     5
100
AcDbLine
 10
373.275
 20
-382.275
 30
0.0
 11
371.4
 21
-386.025
 31
0.0
  0
LINE
  5
D5A
330
1E
100
AcDbEntity
  8
ﾚｲﾔ1
  6
Continuous
 62
     5
100
AcDbLine
 10
372.3
 20
-384.15
 30
0.0
 11
378.9000000000001
 21
-384.15
 31
0.0
  0
LINE
  5
D5B
330
1E
100
AcDbEntity
  8
ﾚｲﾔ1
  6
Continuous
 62
     5
100
AcDbLine
 10
370.425
 20
-387.9
 30
0.0
 11
379.8
 21
-387.9
 31
0.0
  0
LINE
  5
D5C
330
1E
100
AcDbEntity
  8
ﾚｲﾔ1
  6
Continuous
 62
     5
100
AcDbLine
 10
375.15
 20
-381.3
 30
0.0
 11
375.15
 21
-395.4
 31
0.0
  0
LINE
  5
D5D
330
1E
100
AcDbEntity
  8
ﾚｲﾔ1
  6
Continuous
 62
     5
100
AcDbLine
 10
370.425
 20
-394.425
 30
0.0
 11
373.275
 21
-391.65
 31
0.0
  0
LINE
  5
D5E
330
1E
100
AcDbEntity
  8
ﾚｲﾔ1
  6
Continuous
 62
     5
100
AcDbLine
 10
373.275
 20
-391.65
 30
0.0
 11
375.15
 21
-388.8
 31
0.0
  0
LINE
  5
D5F
330
1E
100
AcDbEntity
  8
ﾚｲﾔ1
  6
Continuous
 62
     5
100
AcDbLine
 10
375.15
 20
-388.8
 30
0.0
 11
377.025
 21
-391.65
 31
0.0
  0
LINE
  5
D60
330
1E
100
AcDbEntity
  8
ﾚｲﾔ1
  6
Continuous
 62
     5
100
AcDbLine
 10
377.025
 20
-391.65
 30
0.0
 11
379.8
 21
-394.425
 31
0.0
  0
LINE
  5
D61
330
1E
100
AcDbEntity
  8
ﾚｲﾔ1
  6
Continuous
 62
     5
100
AcDbLine
 10
381.675
 20
-384.15
 30
0.0
 11
394.8
 21
-384.15
 31
0.0
  0
LINE
  5
D62
330
1E
100
AcDbEntity
  8
ﾚｲﾔ1
  6
Continuous
 62
     5
100
AcDbLine
 10
381.675
 20
-394.425
 30
0.0
 11
389.175
 21
-392.55
 31
0.0
  0
LINE
  5
D63
330
1E
100
AcDbEntity
  8
ﾚｲﾔ1
  6
Continuous
 62
     5
100
AcDbLine
 10
382.65
 20
-387.9
 30
0.0
 11
388.2750000000001
 21
-387.9
 31
0.0
  0
LINE
  5
D64
330
1E
100
AcDbEntity
  8
ﾚｲﾔ1
  6
Continuous
 62
     5
100
AcDbLine
 10
385.425
 20
-387.9
 30
0.0
 11
385.425
 21
-393.525
 31
0.0
  0
LINE
  5
D65
330
1E
100
AcDbEntity
  8
ﾚｲﾔ1
  6
Continuous
 62
     5
100
AcDbLine
 10
390.15
 20
-381.3
 30
0.0
 11
390.15
 21
-386.025
 31
0.0
  0
LINE
  5
D66
330
1E
100
AcDbEntity
  8
ﾚｲﾔ1
  6
Continuous
 62
     5
100
AcDbLine
 10
390.15
 20
-386.025
 30
0.0
 11
391.05
 21
-390.675
 31
0.0
  0
LINE
  5
D67
330
1E
100
AcDbEntity
  8
ﾚｲﾔ1
  6
Continuous
 62
     5
100
AcDbLine
 10
391.05
 20
-390.675
 30
0.0
 11
392.025
 21
-392.55
 31
0.0
  0
LINE
  5
D68
330
1E
100
AcDbEntity
  8
ﾚｲﾔ1
  6
Continuous
 62
     5
100
AcDbLine
 10
392.025
 20
-392.55
 30
0.0
 11
394.8
 21
-395.4
 31
0.0
  0
LINE
  5
D69
330
1E
100
AcDbEntity
  8
ﾚｲﾔ1
  6
Continuous
 62
     5
100
AcDbLine
 10
394.8
 20
-395.4
 30
0.0
 11
394.8
 21
-392.55
 31
0.0
  0
LINE
  5
D6A
330
1E
100
AcDbEntity
  8
ﾚｲﾔ1
  6
Continuous
 62
     5
100
AcDbLine
 10
392.925
 20
-381.3
 30
0.0
 11
394.8
 21
-383.175
 31
0.0
  0
LINE
  5
D6B
330
1E
100
AcDbEntity
  8
ﾚｲﾔ1
  6
Continuous
 62
     5
100
AcDbLine
 10
396.75
 20
-387.9
 30
0.0
 11
403.35
 21
-381.3
 31
0.0
  0
LINE
  5
D6C
330
1E
100
AcDbEntity
  8
ﾚｲﾔ1
  6
Continuous
 62
     5
100
AcDbLine
 10
403.35
 20
-381.3
 30
0.0
 11
409.8749999999999
 21
-387.9
 31
0.0
  0
LINE
  5
D6D
330
1E
100
AcDbEntity
  8
ﾚｲﾔ1
  6
Continuous
 62
     5
100
AcDbLine
 10
400.4999999999999
 20
-386.925
 30
0.0
 11
406.125
 21
-386.925
 31
0.0
  0
LINE
  5
D6E
330
1E
100
AcDbEntity
  8
ﾚｲﾔ1
  6
Continuous
 62
     5
100
AcDbLine
 10
397.725
 20
-390.675
 30
0.0
 11
408.975
 21
-390.675
 31
0.0
  0
LINE
  5
D6F
330
1E
100
AcDbEntity
  8
ﾚｲﾔ1
  6
Continuous
 62
     5
100
AcDbLine
 10
407.1
 20
-392.55
 30
0.0
 11
408.975
 21
-395.4
 31
0.0
  0
LINE
  5
D70
330
1E
100
AcDbEntity
  8
ﾚｲﾔ1
  6
Continuous
 62
     5
100
AcDbLine
 10
397.725
 20
-395.4
 30
0.0
 11
408.0
 21
-394.425
 31
0.0
  0
LINE
  5
D71
330
1E
100
AcDbEntity
  8
ﾚｲﾔ1
  6
Continuous
 62
     5
100
AcDbLine
 10
402.3749999999999
 20
-391.65
 30
0.0
 11
399.6
 21
-395.4
 31
0.0
  0
LINE
  5
D72
330
1E
100
AcDbEntity
  8
ﾚｲﾔ1
  6
Continuous
 62
     5
100
AcDbLine
 10
414.525
 20
-381.3
 30
0.0
 11
414.525
 21
-384.15
 31
0.0
  0
LINE
  5
D73
330
1E
100
AcDbEntity
  8
ﾚｲﾔ1
  6
Continuous
 62
     5
100
AcDbLine
 10
411.675
 20
-384.15
 30
0.0
 11
416.4
 21
-384.15
 31
0.0
  0
LINE
  5
D74
330
1E
100
AcDbEntity
  8
ﾚｲﾔ1
  6
Continuous
 62
     5
100
AcDbLine
 10
416.4
 20
-384.15
 30
0.0
 11
414.525
 21
-388.8
 31
0.0
  0
LINE
  5
D75
330
1E
100
AcDbEntity
  8
ﾚｲﾔ1
  6
Continuous
 62
     5
100
AcDbLine
 10
414.525
 20
-388.8
 30
0.0
 11
411.675
 21
-391.65
 31
0.0
  0
LINE
  5
D76
330
1E
100
AcDbEntity
  8
ﾚｲﾔ1
  6
Continuous
 62
     5
100
AcDbLine
 10
414.525
 20
-395.4
 30
0.0
 11
414.525
 21
-388.8
 31
0.0
  0
LINE
  5
D77
330
1E
100
AcDbEntity
  8
ﾚｲﾔ1
  6
Continuous
 62
     5
100
AcDbLine
 10
414.525
 20
-388.8
 30
0.0
 11
417.3
 21
-390.675
 31
0.0
  0
LINE
  5
D78
330
1E
100
AcDbEntity
  8
ﾚｲﾔ1
  6
Continuous
 62
     5
100
AcDbLine
 10
418.275
 20
-386.925
 30
0.0
 11
423.9
 21
-386.925
 31
0.0
  0
LINE
  5
D79
330
1E
100
AcDbEntity
  8
ﾚｲﾔ1
  6
Continuous
 62
     5
100
AcDbLine
 10
417.3
 20
-395.4
 30
0.0
 11
424.8
 21
-395.4
 31
0.0
  0
LINE
  5
D7A
330
1E
100
AcDbEntity
  8
ﾚｲﾔ1
  6
Continuous
 62
     5
100
AcDbLine
 10
421.05
 20
-381.3
 30
0.0
 11
421.05
 21
-395.4
 31
0.0
  0
LINE
  5
D7B
330
1E
100
AcDbEntity
  8
ﾚｲﾔ1
  6
Continuous
 62
     5
100
AcDbLine
 10
437.475
 20
-395.4
 30
0.0
 11
437.475
 21
-382.275
 31
0.0
  0
LINE
  5
D7C
330
1E
100
AcDbEntity
  8
ﾚｲﾔ1
  6
Continuous
 62
     5
100
AcDbLine
 10
437.475
 20
-382.275
 30
0.0
 11
442.1249999999999
 21
-382.275
 31
0.0
  0
LINE
  5
D7D
330
1E
100
AcDbEntity
  8
ﾚｲﾔ1
  6
Continuous
 62
     5
100
AcDbLine
 10
442.1249999999999
 20
-382.275
 30
0.0
 11
442.1249999999999
 21
-386.025
 31
0.0
  0
LINE
  5
D7E
330
1E
100
AcDbEntity
  8
ﾚｲﾔ1
  6
Continuous
 62
     5
100
AcDbLine
 10
442.1249999999999
 20
-386.025
 30
0.0
 11
437.475
 21
-386.025
 31
0.0
  0
LINE
  5
D7F
330
1E
100
AcDbEntity
  8
ﾚｲﾔ1
  6
Continuous
 62
     5
100
AcDbLine
 10
437.475
 20
-384.15
 30
0.0
 11
442.1249999999999
 21
-384.15
 31
0.0
  0
LINE
  5
D80
330
1E
100
AcDbEntity
  8
ﾚｲﾔ1
  6
Continuous
 62
     5
100
AcDbLine
 10
448.725
 20
-386.025
 30
0.0
 11
444.0
 21
-386.025
 31
0.0
  0
LINE
  5
D81
330
1E
100
AcDbEntity
  8
ﾚｲﾔ1
  6
Continuous
 62
     5
100
AcDbLine
 10
444.0
 20
-386.025
 30
0.0
 11
444.0
 21
-382.275
 31
0.0
  0
LINE
  5
D82
330
1E
100
AcDbEntity
  8
ﾚｲﾔ1
  6
Continuous
 62
     5
100
AcDbLine
 10
444.0
 20
-382.275
 30
0.0
 11
448.725
 21
-382.275
 31
0.0
  0
LINE
  5
D83
330
1E
100
AcDbEntity
  8
ﾚｲﾔ1
  6
Continuous
 62
     5
100
AcDbLine
 10
448.725
 20
-382.275
 30
0.0
 11
448.725
 21
-395.4
 31
0.0
  0
LINE
  5
D84
330
1E
100
AcDbEntity
  8
ﾚｲﾔ1
  6
Continuous
 62
     5
100
AcDbLine
 10
448.725
 20
-395.4
 30
0.0
 11
447.75
 21
-395.4
 31
0.0
  0
LINE
  5
D85
330
1E
100
AcDbEntity
  8
ﾚｲﾔ1
  6
Continuous
 62
     5
100
AcDbLine
 10
444.0
 20
-384.15
 30
0.0
 11
448.725
 21
-384.15
 31
0.0
  0
LINE
  5
D86
330
1E
100
AcDbEntity
  8
ﾚｲﾔ1
  6
Continuous
 62
     5
100
AcDbLine
 10
441.225
 20
-386.925
 30
0.0
 11
443.1
 21
-388.8
 31
0.0
  0
LINE
  5
D87
330
1E
100
AcDbEntity
  8
ﾚｲﾔ1
  6
Continuous
 62
     5
100
AcDbLine
 10
443.1
 20
-388.8
 30
0.0
 11
444.975
 21
-386.925
 31
0.0
  0
LINE
  5
D88
330
1E
100
AcDbEntity
  8
ﾚｲﾔ1
  6
Continuous
 62
     5
100
AcDbLine
 10
440.2499999999999
 20
-388.8
 30
0.0
 11
445.875
 21
-388.8
 31
0.0
  0
LINE
  5
D89
330
1E
100
AcDbEntity
  8
ﾚｲﾔ1
  6
Continuous
 62
     5
100
AcDbLine
 10
439.35
 20
-391.65
 30
0.0
 11
446.85
 21
-391.65
 31
0.0
  0
LINE
  5
D8A
330
1E
100
AcDbEntity
  8
ﾚｲﾔ1
  6
Continuous
 62
     5
100
AcDbLine
 10
443.1
 20
-388.8
 30
0.0
 11
443.1
 21
-391.65
 31
0.0
  0
LINE
  5
D8B
330
1E
100
AcDbEntity
  8
ﾚｲﾔ1
  6
Continuous
 62
     5
100
AcDbLine
 10
443.1
 20
-391.65
 30
0.0
 11
441.225
 21
-393.525
 31
0.0
  0
LINE
  5
D8C
330
1E
100
AcDbEntity
  8
ﾚｲﾔ1
  6
Continuous
 62
     5
100
AcDbLine
 10
441.225
 20
-393.525
 30
0.0
 11
439.35
 21
-394.425
 31
0.0
  0
LINE
  5
D8D
330
1E
100
AcDbEntity
  8
ﾚｲﾔ1
  6
Continuous
 62
     5
100
AcDbLine
 10
443.1
 20
-391.65
 30
0.0
 11
444.975
 21
-393.525
 31
0.0
  0
LINE
  5
D8E
330
1E
100
AcDbEntity
  8
ﾚｲﾔ1
  6
Continuous
 62
     5
100
AcDbLine
 10
444.975
 20
-393.525
 30
0.0
 11
446.85
 21
-394.425
 31
0.0
  0
LINE
  5
D8F
330
1E
100
AcDbEntity
  8
ﾚｲﾔ1
  6
Continuous
 62
     5
100
AcDbLine
 10
451.4999999999999
 20
-383.175
 30
0.0
 11
464.625
 21
-383.175
 31
0.0
  0
LINE
  5
D90
330
1E
100
AcDbEntity
  8
ﾚｲﾔ1
  6
Continuous
 62
     5
100
AcDbLine
 10
453.375
 20
-385.05
 30
0.0
 11
462.75
 21
-385.05
 31
0.0
  0
LINE
  5
D91
330
1E
100
AcDbEntity
  8
ﾚｲﾔ1
  6
Continuous
 62
     5
100
AcDbLine
 10
462.75
 20
-385.05
 30
0.0
 11
462.75
 21
-390.675
 31
0.0
  0
LINE
  5
D92
330
1E
100
AcDbEntity
  8
ﾚｲﾔ1
  6
Continuous
 62
     5
100
AcDbLine
 10
462.75
 20
-390.675
 30
0.0
 11
453.375
 21
-390.675
 31
0.0
  0
LINE
  5
D93
330
1E
100
AcDbEntity
  8
ﾚｲﾔ1
  6
Continuous
 62
     5
100
AcDbLine
 10
453.375
 20
-390.675
 30
0.0
 11
453.375
 21
-385.05
 31
0.0
  0
LINE
  5
D94
330
1E
100
AcDbEntity
  8
ﾚｲﾔ1
  6
Continuous
 62
     5
100
AcDbLine
 10
453.375
 20
-387.9
 30
0.0
 11
462.75
 21
-387.9
 31
0.0
  0
LINE
  5
D95
330
1E
100
AcDbEntity
  8
ﾚｲﾔ1
  6
Continuous
 62
     5
100
AcDbLine
 10
458.1
 20
-381.3
 30
0.0
 11
458.1
 21
-395.4
 31
0.0
  0
LINE
  5
D96
330
1E
100
AcDbEntity
  8
ﾚｲﾔ1
  6
Continuous
 62
     5
100
AcDbLine
 10
451.4999999999999
 20
-394.425
 30
0.0
 11
454.35
 21
-393.525
 31
0.0
  0
LINE
  5
D97
330
1E
100
AcDbEntity
  8
ﾚｲﾔ1
  6
Continuous
 62
     5
100
AcDbLine
 10
454.35
 20
-393.525
 30
0.0
 11
458.1
 21
-390.675
 31
0.0
  0
LINE
  5
D98
330
1E
100
AcDbEntity
  8
ﾚｲﾔ1
  6
Continuous
 62
     5
100
AcDbLine
 10
458.1
 20
-390.675
 30
0.0
 11
461.85
 21
-393.525
 31
0.0
  0
LINE
  5
D99
330
1E
100
AcDbEntity
  8
ﾚｲﾔ1
  6
Continuous
 62
     5
100
AcDbLine
 10
461.85
 20
-393.525
 30
0.0
 11
464.625
 21
-394.425
 31
0.0
  0
LINE
  5
D9A
330
1E
100
AcDbEntity
  8
ﾚｲﾔ1
  6
Continuous
 62
     5
100
AcDbLine
 10
467.475
 20
-381.3
 30
0.0
 11
469.35
 21
-383.175
 31
0.0
  0
LINE
  5
D9B
330
1E
100
AcDbEntity
  8
ﾚｲﾔ1
  6
Continuous
 62
     5
100
AcDbLine
 10
466.5
 20
-386.025
 30
0.0
 11
468.3749999999999
 21
-387.9
 31
0.0
  0
LINE
  5
D9C
330
1E
100
AcDbEntity
  8
ﾚｲﾔ1
  6
Continuous
 62
     5
100
AcDbLine
 10
466.5
 20
-395.4
 30
0.0
 11
469.35
 21
-389.775
 31
0.0
  0
LINE
  5
D9D
330
1E
100
AcDbEntity
  8
ﾚｲﾔ1
  6
Continuous
 62
     5
100
AcDbLine
 10
472.125
 20
-384.15
 30
0.0
 11
479.6249999999999
 21
-384.15
 31
0.0
  0
LINE
  5
D9E
330
1E
100
AcDbEntity
  8
ﾚｲﾔ1
  6
Continuous
 62
     5
100
AcDbLine
 10
479.6249999999999
 20
-384.15
 30
0.0
 11
479.6249999999999
 21
-395.4
 31
0.0
  0
LINE
  5
D9F
330
1E
100
AcDbEntity
  8
ﾚｲﾔ1
  6
Continuous
 62
     5
100
AcDbLine
 10
479.6249999999999
 20
-395.4
 30
0.0
 11
472.125
 21
-395.4
 31
0.0
  0
LINE
  5
DA0
330
1E
100
AcDbEntity
  8
ﾚｲﾔ1
  6
Continuous
 62
     5
100
AcDbLine
 10
472.125
 20
-395.4
 30
0.0
 11
472.125
 21
-384.15
 31
0.0
  0
LINE
  5
DA1
330
1E
100
AcDbEntity
  8
ﾚｲﾔ1
  6
Continuous
 62
     5
100
AcDbLine
 10
472.125
 20
-389.775
 30
0.0
 11
479.6249999999999
 21
-389.775
 31
0.0
  0
LINE
  5
DA2
330
1E
100
AcDbEntity
  8
ﾚｲﾔ1
  6
Continuous
 62
     5
100
AcDbLine
 10
475.875
 20
-381.3
 30
0.0
 11
475.875
 21
-395.4
 31
0.0
  0
LINE
  5
DA3
330
1E
100
AcDbEntity
  8
ﾚｲﾔ1
  6
Continuous
 62
     5
100
AcDbLine
 10
481.5
 20
-385.05
 30
0.0
 11
485.25
 21
-385.05
 31
0.0
  0
LINE
  5
DA4
330
1E
100
AcDbEntity
  8
ﾚｲﾔ1
  6
Continuous
 62
     5
100
AcDbLine
 10
483.375
 20
-381.3
 30
0.0
 11
483.375
 21
-395.4
 31
0.0
  0
LINE
  5
DA5
330
1E
100
AcDbEntity
  8
ﾚｲﾔ1
  6
Continuous
 62
     5
100
AcDbLine
 10
481.5
 20
-390.675
 30
0.0
 11
483.375
 21
-386.025
 31
0.0
  0
LINE
  5
DA6
330
1E
100
AcDbEntity
  8
ﾚｲﾔ1
  6
Continuous
 62
     5
100
AcDbLine
 10
483.375
 20
-386.025
 30
0.0
 11
485.25
 21
-388.8
 31
0.0
  0
LINE
  5
DA7
330
1E
100
AcDbEntity
  8
ﾚｲﾔ1
  6
Continuous
 62
     5
100
AcDbLine
 10
488.1
 20
-381.3
 30
0.0
 11
486.225
 21
-383.175
 31
0.0
  0
LINE
  5
DA8
330
1E
100
AcDbEntity
  8
ﾚｲﾔ1
  6
Continuous
 62
     5
100
AcDbLine
 10
486.225
 20
-383.175
 30
0.0
 11
488.1
 21
-384.15
 31
0.0
  0
LINE
  5
DA9
330
1E
100
AcDbEntity
  8
ﾚｲﾔ1
  6
Continuous
 62
     5
100
AcDbLine
 10
489.0
 20
-383.175
 30
0.0
 11
486.225
 21
-386.925
 31
0.0
  0
LINE
  5
DAA
330
1E
100
AcDbEntity
  8
ﾚｲﾔ1
  6
Continuous
 62
     5
100
AcDbLine
 10
486.225
 20
-386.925
 30
0.0
 11
489.0
 21
-386.925
 31
0.0
  0
LINE
  5
DAB
330
1E
100
AcDbEntity
  8
ﾚｲﾔ1
  6
Continuous
 62
     5
100
AcDbLine
 10
489.0
 20
-386.925
 30
0.0
 11
488.1
 21
-385.05
 31
0.0
  0
LINE
  5
DAC
330
1E
100
AcDbEntity
  8
ﾚｲﾔ1
  6
Continuous
 62
     5
100
AcDbLine
 10
493.725
 20
-381.3
 30
0.0
 11
491.85
 21
-383.175
 31
0.0
  0
LINE
  5
DAD
330
1E
100
AcDbEntity
  8
ﾚｲﾔ1
  6
Continuous
 62
     5
100
AcDbLine
 10
491.85
 20
-383.175
 30
0.0
 11
493.725
 21
-384.15
 31
0.0
  0
LINE
  5
DAE
330
1E
100
AcDbEntity
  8
ﾚｲﾔ1
  6
Continuous
 62
     5
100
AcDbLine
 10
494.625
 20
-383.175
 30
0.0
 11
491.85
 21
-386.925
 31
0.0
  0
LINE
  5
DAF
330
1E
100
AcDbEntity
  8
ﾚｲﾔ1
  6
Continuous
 62
     5
100
AcDbLine
 10
491.85
 20
-386.925
 30
0.0
 11
494.625
 21
-386.925
 31
0.0
  0
LINE
  5
DB0
330
1E
100
AcDbEntity
  8
ﾚｲﾔ1
  6
Continuous
 62
     5
100
AcDbLine
 10
494.625
 20
-386.925
 30
0.0
 11
493.725
 21
-385.05
 31
0.0
  0
LINE
  5
DB1
330
1E
100
AcDbEntity
  8
ﾚｲﾔ1
  6
Continuous
 62
     5
100
AcDbLine
 10
485.25
 20
-389.775
 30
0.0
 11
494.625
 21
-389.775
 31
0.0
  0
LINE
  5
DB2
330
1E
100
AcDbEntity
  8
ﾚｲﾔ1
  6
Continuous
 62
     5
100
AcDbLine
 10
487.1249999999999
 20
-389.775
 30
0.0
 11
487.1249999999999
 21
-391.65
 31
0.0
  0
LINE
  5
DB3
330
1E
100
AcDbEntity
  8
ﾚｲﾔ1
  6
Continuous
 62
     5
100
AcDbLine
 10
487.1249999999999
 20
-391.65
 30
0.0
 11
485.25
 21
-394.425
 31
0.0
  0
LINE
  5
DB4
330
1E
100
AcDbEntity
  8
ﾚｲﾔ1
  6
Continuous
 62
     5
100
AcDbLine
 10
487.1249999999999
 20
-391.65
 30
0.0
 11
489.0
 21
-393.525
 31
0.0
  0
LINE
  5
DB5
330
1E
100
AcDbEntity
  8
ﾚｲﾔ1
  6
Continuous
 62
     5
100
AcDbLine
 10
489.975
 20
-381.3
 30
0.0
 11
489.975
 21
-387.9
 31
0.0
  0
LINE
  5
DB6
330
1E
100
AcDbEntity
  8
ﾚｲﾔ1
  6
Continuous
 62
     5
100
AcDbLine
 10
489.975
 20
-387.9
 30
0.0
 11
490.875
 21
-392.55
 31
0.0
  0
LINE
  5
DB7
330
1E
100
AcDbEntity
  8
ﾚｲﾔ1
  6
Continuous
 62
     5
100
AcDbLine
 10
490.875
 20
-392.55
 30
0.0
 11
492.75
 21
-394.425
 31
0.0
  0
LINE
  5
DB8
330
1E
100
AcDbEntity
  8
ﾚｲﾔ1
  6
Continuous
 62
     5
100
AcDbLine
 10
492.75
 20
-394.425
 30
0.0
 11
494.625
 21
-395.4
 31
0.0
  0
LINE
  5
DB9
330
1E
100
AcDbEntity
  8
ﾚｲﾔ1
  6
Continuous
 62
     5
100
AcDbLine
 10
494.625
 20
-395.4
 30
0.0
 11
494.625
 21
-393.525
 31
0.0
  0
LINE
  5
DBA
330
1E
100
AcDbEntity
  8
ﾚｲﾔ1
  6
Continuous
 62
     5
100
AcDbLine
 10
493.725
 20
-390.675
 30
0.0
 11
492.75
 21
-392.55
 31
0.0
  0
LINE
  5
DBB
330
1E
100
AcDbEntity
  8
ﾚｲﾔ1
  6
Continuous
 62
     5
100
AcDbLine
 10
492.75
 20
-392.55
 30
0.0
 11
490.875
 21
-394.425
 31
0.0
  0
LINE
  5
DBC
330
1E
100
AcDbEntity
  8
ﾚｲﾔ1
  6
Continuous
 62
     5
100
AcDbLine
 10
490.875
 20
-394.425
 30
0.0
 11
488.1
 21
-395.4
 31
0.0
  0
LINE
  5
DBD
330
1E
100
AcDbEntity
  8
ﾚｲﾔ1
  6
Continuous
 62
     5
100
AcDbLine
 10
491.85
 20
-387.9
 30
0.0
 11
493.725
 21
-388.8
 31
0.0
  0
LINE
  5
DBE
330
1E
100
AcDbEntity
  8
ﾚｲﾔ1
  6
Continuous
 62
     5
100
AcDbLine
 10
497.475
 20
-386.025
 30
0.0
 11
508.725
 21
-386.025
 31
0.0
  0
LINE
  5
DBF
330
1E
100
AcDbEntity
  8
ﾚｲﾔ1
  6
Continuous
 62
     5
100
AcDbLine
 10
499.35
 20
-382.275
 30
0.0
 11
499.35
 21
-389.775
 31
0.0
  0
LINE
  5
DC0
330
1E
100
AcDbEntity
  8
ﾚｲﾔ1
  6
Continuous
 62
     5
100
AcDbLine
 10
506.85
 20
-382.275
 30
0.0
 11
506.85
 21
-389.775
 31
0.0
  0
LINE
  5
DC1
330
1E
100
AcDbEntity
  8
ﾚｲﾔ1
  6
Continuous
 62
     5
100
AcDbLine
 10
506.85
 20
-389.775
 30
0.0
 11
504.975
 21
-392.55
 31
0.0
  0
LINE
  5
DC2
330
1E
100
AcDbEntity
  8
ﾚｲﾔ1
  6
Continuous
 62
     5
100
AcDbLine
 10
504.975
 20
-392.55
 30
0.0
 11
502.125
 21
-394.425
 31
0.0
  0
LINE
  5
DC3
330
1E
100
AcDbEntity
  8
ﾚｲﾔ1
  6
Continuous
 62
     5
100
AcDbLine
 10
502.125
 20
-394.425
 30
0.0
 11
500.25
 21
-394.425
 31
0.0
  0
LINE
  5
DC4
330
1E
100
AcDbEntity
  8
ﾚｲﾔ1
  6
Continuous
 62
     5
100
AcDbLine
 10
536.85
 20
-384.15
 30
0.0
 11
534.0
 21
-386.025
 31
0.0
  0
LINE
  5
DC5
330
1E
100
AcDbEntity
  8
ﾚｲﾔ1
  6
Continuous
 62
     5
100
AcDbLine
 10
534.0
 20
-386.025
 30
0.0
 11
531.225
 21
-386.925
 31
0.0
  0
LINE
  5
DC6
330
1E
100
AcDbEntity
  8
ﾚｲﾔ1
  6
Continuous
 62
     5
100
AcDbLine
 10
531.225
 20
-386.925
 30
0.0
 11
528.375
 21
-386.925
 31
0.0
  0
LINE
  5
DC7
330
1E
100
AcDbEntity
  8
ﾚｲﾔ1
  6
Continuous
 62
     5
100
AcDbLine
 10
528.375
 20
-382.275
 30
0.0
 11
528.375
 21
-392.55
 31
0.0
  0
LINE
  5
DC8
330
1E
100
AcDbEntity
  8
ﾚｲﾔ1
  6
Continuous
 62
     5
100
AcDbLine
 10
528.375
 20
-392.55
 30
0.0
 11
529.35
 21
-393.525
 31
0.0
  0
LINE
  5
DC9
330
1E
100
AcDbEntity
  8
ﾚｲﾔ1
  6
Continuous
 62
     5
100
AcDbLine
 10
529.35
 20
-393.525
 30
0.0
 11
537.75
 21
-393.525
 31
0.0
  0
LINE
  5
DCA
330
1E
100
AcDbEntity
  8
ﾚｲﾔ1
  6
Continuous
 62
     5
100
AcDbLine
 10
537.75
 20
-383.175
 30
0.0
 11
538.725
 21
-384.15
 31
0.0
  0
LINE
  5
DCB
330
1E
100
AcDbEntity
  8
ﾚｲﾔ1
  6
Continuous
 62
     5
100
AcDbLine
 10
538.725
 20
-381.3
 30
0.0
 11
539.625
 21
-382.275
 31
0.0
  0
LINE
  5
DCC
330
1E
100
AcDbEntity
  8
ﾚｲﾔ1
  6
Continuous
 62
     5
100
AcDbLine
 10
543.3749999999999
 20
-383.175
 30
0.0
 11
551.85
 21
-383.175
 31
0.0
  0
LINE
  5
DCD
330
1E
100
AcDbEntity
  8
ﾚｲﾔ1
  6
Continuous
 62
     5
100
AcDbLine
 10
551.85
 20
-383.175
 30
0.0
 11
550.875
 21
-386.925
 31
0.0
  0
LINE
  5
DCE
330
1E
100
AcDbEntity
  8
ﾚｲﾔ1
  6
Continuous
 62
     5
100
AcDbLine
 10
550.875
 20
-386.925
 30
0.0
 11
549.0
 21
-389.775
 31
0.0
  0
LINE
  5
DCF
330
1E
100
AcDbEntity
  8
ﾚｲﾔ1
  6
Continuous
 62
     5
100
AcDbLine
 10
549.0
 20
-389.775
 30
0.0
 11
546.225
 21
-392.55
 31
0.0
  0
LINE
  5
DD0
330
1E
100
AcDbEntity
  8
ﾚｲﾔ1
  6
Continuous
 62
     5
100
AcDbLine
 10
546.225
 20
-392.55
 30
0.0
 11
542.475
 21
-394.425
 31
0.0
  0
LINE
  5
DD1
330
1E
100
AcDbEntity
  8
ﾚｲﾔ1
  6
Continuous
 62
     5
100
AcDbLine
 10
549.0
 20
-389.775
 30
0.0
 11
553.725
 21
-394.425
 31
0.0
  0
TEXT
  5
DD2
330
1E
100
AcDbEntity
  8
文字
 62
     5
100
AcDbText
 10
186.3
 20
-337.2
 30
0.0
 40
11.0
  1
審査
100
AcDbText
  0
TEXT
  5
DD5
330
1E
100
AcDbEntity
  8
文字
 62
     5
100
AcDbText
 10
217.9266905567071
 20
-336.0702426864357
 30
0.0
 40
11.0
  1
検図
100
AcDbText
  0
TEXT
  5
DD6
330
1E
100
AcDbEntity
  8
文字
 62
     5
100
AcDbText
 10
245.7
 20
-336.9
 30
0.0
 40
11.0
  1
設計
 41
1.125
100
AcDbText
  0
TEXT
  5
DD7
330
1E
100
AcDbEntity
  8
文字
 62
     5
100
AcDbText
 10
276.3
 20
-337.2
 30
0.0
 40
11.0
  1
製図
 41
1.125
100
AcDbText
  0
TEXT
  5
DD8
330
1E
100
AcDbEntity
  8
文字
 62
     5
100
AcDbText
 10
310.65
 20
-337.3595167251309
 30
0.0
 40
12.0
  1
尺度
 41
1.199999999999999
100
AcDbText
  0
TEXT
  5
DD9
330
1E
100
AcDbEntity
  8
文字
 62
     5
100
AcDbText
 10
347.85
 20
-294.6131444336534
 30
0.0
 40
12.0
  1
名称
 50
270.0
 41
1.3
100
AcDbText
  0
TEXT
  5
DDA
330
1E
100
AcDbEntity
  8
文字
 62
     5
100
AcDbText
 10
348.1153381113416
 20
-349.9053640296535
 30
0.0
 40
9.0
  1
設計年月日
 41
0.75
100
AcDbText
  0
TEXT
  5
DDC
330
1E
100
AcDbEntity
  8
文字
 62
     5
100
AcDbText
 10
350.9094486208962
 20
-366.7983806076512
 30
0.0
 40
9.0
  1
重　量
100
AcDbText
  0
TEXT
  5
DDE
330
1E
100
AcDbEntity
  8
文字
 62
     5
100
AcDbText
 10
422.85
 20
-364.5
 30
0.0
 40
9.0
  1
番
100
AcDbText
  0
TEXT
  5
DDF
330
1E
100
AcDbEntity
  8
文字
 62
     5
100
AcDbText
 10
206.1
 20
-321.3
 30
0.0
 40
7.5
  1
年月日
 41
0.9
100
AcDbText
  0
TEXT
  5
DE0
330
1E
100
AcDbEntity
  8
文字
 62
     5
100
AcDbText
 10
186.3
 20
-320.7000000000001
 30
0.0
 40
7.5
  1
記号
100
AcDbText
  0
TEXT
  5
DE1
330
1E
100
AcDbEntity
  8
文字
 62
     5
100
AcDbText
 10
238.673309443293
 20
-319.5702405884335
 30
0.0
 40
7.5
  1
訂正
 41
2.0
100
AcDbText
  0
TEXT
  5
DE2
330
1E
100
AcDbEntity
  8
文字
 62
     5
100
AcDbText
 10
282.2533774182481
 20
-319.5702426864357
 30
0.0
 40
7.5
  1
理由
 41
2.0
100
AcDbText
  0
TEXT
  5
DE3
330
1E
100
AcDbEntity
  8
文字
 62
     5
100
AcDbText
 10
324.0693237773168
 20
-319.5702405884337
 30
0.0
 40
7.5
  1
訂正者
 41
0.85
100
AcDbText
  0
TEXT
  5
DE5
330
1E
100
AcDbEntity
  8
文字
 62
     5
100
AcDbText
 10
347.55
 20
-291.0
 30
0.0
 40
9.0
  1
番号
100
AcDbText
  0
TEXT
  5
DE6
330
1E
100
AcDbEntity
  8
文字
 62
     5
100
AcDbText
 10
369.15
 20
-291.6
 30
0.0
 40
9.0
  1
名称
 41
2.0
100
AcDbText
  0
TEXT
  5
DE7
330
1E
100
AcDbEntity
  8
文字
 62
     5
100
AcDbText
 10
423.15
 20
-291.3
 30
0.0
 40
9.0
  1
数量
100
AcDbText
  0
TEXT
  5
DE8
330
1E
100
AcDbEntity
  8
文字
 62
     5
100
AcDbText
 10
447.9
 20
-291.6
 30
0.0
 40
9.0
  1
材質
100
AcDbText
  0
TEXT
  5
DE9
330
1E
100
AcDbEntity
  8
文字
 62
     5
100
AcDbText
 10
480.6
 20
-291.0
 30
0.0
 40
9.0
  1
記事
 41
2.0
100
AcDbText
  0
TEXT
  5
DEA
330
1E
100
AcDbEntity
  8
文字
100
AcDbText
 10
-311.618837497166
 20
51.35262326873209
 30
0.0
 40
15.0
  1
ＰＣＤ
 50
30.91
 41
0.8
100
AcDbText
  0
TEXT
  5
DEB
330
1E
100
AcDbEntity
  8
文字
100
AcDbText
 10
-166.5201239642118
 20
-28.30929842280119
 30
0.0
 40
15.0
  1
２－１４キリ通
 41
0.8
100
AcDbText
  0
TEXT
  5
DEC
330
1E
100
AcDbEntity
  8
文字
100
AcDbText
 10
147.4940060899216
 20
217.5553213769624
 30
0.0
 40
21.0
  1
Ａ
100
AcDbText
  0
TEXT
  5
DED
330
1E
100
AcDbEntity
  8
文字
100
AcDbText
 10
162.0518486805837
 20
-84.1352701261494
 30
0.0
 40
21.0
  1
Ａ
100
AcDbText
  0
TEXT
  5
DEE
330
1E
100
AcDbEntity
  8
文字
100
AcDbText
 10
-511.3478477411497
 20
-66.18871722867766
 30
0.0
 40
20.0
  1
Ａ－Ａ断面詳細
100
AcDbText
  0
TEXT
  5
DF1
330
1E
100
AcDbEntity
  8
文字
 62
     5
100
AcDbText
 10
389.2153381113407
 20
-350.5851213432178
 30
0.0
 40
9.0
  1
94.6.14
 41
0.7
100
AcDbText
  0
TEXT
  5
DF5
330
1E
100
AcDbEntity
  8
文字
 62
     5
100
AcDbText
 10
279.15
 20
-361.95
 30
0.0
 40
9.0
  1
菊池
 41
1.116666666666666
100
AcDbText
  0
TEXT
  5
DF6
330
1E
100
AcDbEntity
  8
文字
 62
     5
100
AcDbText
 10
373.95
 20
-312.75
 30
0.0
 40
15.0
  1
ラムチェアー
 41
1.12
100
AcDbText
  0
TEXT
  5
DF7
330
1E
100
AcDbEntity
  8
文字
 62
     5
100
AcDbText
 10
375.15
 20
-333.1500000000001
 30
0.0
 40
12.0
  1
100TON
 41
1.125
100
AcDbText
  0
TEXT
  5
DF8
330
1E
100
AcDbEntity
  8
文字
 62
     5
100
AcDbText
 10
451.9822178122508
 20
-332.5851192452159
 30
0.0
 40
12.0
  1
*200ｓｔ
 41
1.125
100
AcDbText
  0
TEXT
  5
DFA
330
1E
100
AcDbEntity
  8
文字
 62
     5
100
AcDbText
 10
307.8
 20
-350.4
 30
0.0
 40
12.0
  1
１：
 41
0.9375
100
AcDbText
  0
TEXT
  5
DFB
330
1E
100
AcDbEntity
  8
文字
 62
     5
100
AcDbText
 10
330.0
 20
-350.4
 30
0.0
 40
12.0
  1
３
100
AcDbText
  0
LINE
  5
DFC
330
1E
100
AcDbEntity
  8
寸法
  6
Continuous
100
AcDbLine
 10
188.2940060899216
 20
211.5553213769625
 30
0.0
 11
157.0940060899216
 21
211.5553213769625
 31
0.0
  0
LINE
  5
DFD
330
1E
100
AcDbEntity
  8
寸法
  6
Continuous
100
AcDbLine
 10
182.4440060899216
 20
209.9803213769625
 30
0.0
 11
188.2940060899216
 21
211.5553213769625
 31
0.0
  0
LINE
  5
DFE
330
1E
100
AcDbEntity
  8
寸法
  6
Continuous
100
AcDbLine
 10
188.2940060899216
 20
211.5553213769625
 30
0.0
 11
182.4440060899216
 21
213.0553213769625
 31
0.0
  0
LINE
  5
DFF
330
1E
100
AcDbEntity
  8
寸法
  6
Continuous
100
AcDbLine
 10
157.0940060899216
 20
211.5553213769625
 30
0.0
 11
157.0940060899216
 21
210.3553213769624
 31
0.0
  0
LINE
  5
E00
330
1E
100
AcDbEntity
  8
寸法
  6
Continuous
100
AcDbLine
 10
157.0940060899216
 20
210.3553213769624
 30
0.0
 11
157.0940060899216
 21
192.3553213769624
 31
0.0
  0
LINE
  5
E01
330
1E
100
AcDbEntity
  8
寸法
  6
Continuous
100
AcDbLine
 10
188.2940060899216
 20
-58.14467862303752
 30
0.0
 11
157.0940060899216
 21
-58.14467862303752
 31
0.0
  0
LINE
  5
E02
330
1E
100
AcDbEntity
  8
寸法
  6
Continuous
100
AcDbLine
 10
182.4440060899216
 20
-56.56967862303758
 30
0.0
 11
188.2940060899216
 21
-58.14467862303752
 31
0.0
  0
LINE
  5
E03
330
1E
100
AcDbEntity
  8
寸法
  6
Continuous
100
AcDbLine
 10
188.2940060899216
 20
-58.14467862303752
 30
0.0
 11
182.4440060899216
 21
-59.64467862303752
 31
0.0
  0
LINE
  5
E04
330
1E
100
AcDbEntity
  8
寸法
  6
Continuous
100
AcDbLine
 10
157.0940060899216
 20
-58.14467862303752
 30
0.0
 11
157.0940060899216
 21
-56.94467862303759
 31
0.0
  0
LINE
  5
E05
330
1E
100
AcDbEntity
  8
寸法
  6
Continuous
100
AcDbLine
 10
157.0940060899216
 20
-58.14467862303752
 30
0.0
 11
157.0940060899216
 21
-40.14467862303752
 31
0.0
  0
INSERT
  5
E06
330
1E
100
AcDbEntity
  8
寸法
100
AcDbBlockReference
  2
*G0
 10
65.74400608992164
 20
162.5053213769624
 30
0.0
  0
TEXT
  5
E07
330
1E
100
AcDbEntity
  8
寸法
100
AcDbText
 10
385.5440060899216
 20
251.3053213769625
 30
0.0
 40
15.0
  1
5
 41
0.8
100
AcDbText
  0
INSERT
  5
E08
330
1E
100
AcDbEntity
  8
寸法
100
AcDbBlockReference
  2
*G1
 10
65.74400608992164
 20
162.5053213769624
 30
0.0
  0
TEXT
  5
E09
330
1E
100
AcDbEntity
  8
寸法
100
AcDbText
 10
351.0440060899217
 20
251.3053213769625
 30
0.0
 40
15.0
  1
25
 41
0.8
100
AcDbText
  0
INSERT
  5
E0A
330
1E
100
AcDbEntity
  8
寸法
100
AcDbBlockReference
  2
*G2
 10
65.74400608992164
 20
162.5053213769624
 30
0.0
  0
TEXT
  5
E0B
330
1E
100
AcDbEntity
  8
寸法
100
AcDbText
 10
279.3440060899217
 20
251.3053213769625
 30
0.0
 40
15.0
  1
110
100
AcDbText
  0
INSERT
  5
E0C
330
1E
100
AcDbEntity
  8
寸法
100
AcDbBlockReference
  2
*G3
 10
65.74400608992164
 20
162.5053213769624
 30
0.0
  0
TEXT
  5
E0D
330
1E
100
AcDbEntity
  8
寸法
100
AcDbText
 10
216.0440060899217
 20
251.3053213769625
 30
0.0
 40
15.0
  1
25
 41
0.8
100
AcDbText
  0
INSERT
  5
E0E
330
1E
100
AcDbEntity
  8
寸法
100
AcDbBlockReference
  2
*G4
 10
65.74400608992164
 20
162.5053213769624
 30
0.0
  0
TEXT
  5
E0F
330
1E
100
AcDbEntity
  8
寸法
100
AcDbText
 10
144.2690060899216
 20
251.3053213769625
 30
0.0
 40
15.0
  1
110
100
AcDbText
  0
INSERT
  5
E10
330
1E
100
AcDbEntity
  8
寸法
100
AcDbBlockReference
  2
*G5
 10
65.74400608992164
 20
162.5053213769624
 30
0.0
  0
TEXT
  5
E11
330
1E
100
AcDbEntity
  8
寸法
100
AcDbText
 10
84.49400608992164
 20
251.3053213769625
 30
0.0
 40
15.0
  1
18
 41
0.8
100
AcDbText
  0
LINE
  5
E12
330
1E
100
AcDbEntity
  8
寸法
  6
Continuous
100
AcDbLine
 10
101.5190060899216
 20
247.5553213769625
 30
0.0
 11
101.5190060899216
 21
202.5553213769625
 31
0.0
  0
INSERT
  5
E13
330
1E
100
AcDbEntity
  8
寸法
100
AcDbBlockReference
  2
*G6
 10
65.74400608992164
 20
162.5053213769624
 30
0.0
  0
TEXT
  5
E14
330
1E
100
AcDbEntity
  8
寸法
100
AcDbText
 10
217.8440060899216
 20
293.9053213769625
 30
0.0
 40
15.0
  1
293
 41
0.8
100
AcDbText
  0
LINE
  5
E15
330
1E
100
AcDbEntity
  8
寸法
  6
Continuous
100
AcDbLine
 10
376.6190060899216
 20
290.1553213769624
 30
0.0
 11
376.6190060899216
 21
245.1553213769625
 31
0.0
  0
LINE
  5
E16
330
1E
100
AcDbEntity
  8
寸法
  6
Continuous
100
AcDbLine
 10
83.59400608992164
 20
290.1553213769624
 30
0.0
 11
83.59400608992164
 21
245.1553213769625
 31
0.0
  0
INSERT
  5
E17
330
1E
100
AcDbEntity
  8
寸法
100
AcDbBlockReference
  2
*G7
 10
65.74400608992164
 20
162.5053213769624
 30
0.0
  0
TEXT
  5
E18
330
1E
100
AcDbEntity
  8
寸法
100
AcDbText
 10
62.06900608992164
 20
293.9053213769625
 30
0.0
 40
15.0
  1
27
 41
0.8
100
AcDbText
  0
INSERT
  5
E19
330
1E
100
AcDbEntity
  8
寸法
100
AcDbBlockReference
  2
*G8
 10
65.74400608992164
 20
162.5053213769624
 30
0.0
  0
TEXT
  5
E1A
330
1E
100
AcDbEntity
  8
寸法
100
AcDbText
 10
204.3440060899216
 20
329.9053213769624
 30
0.0
 40
15.0
  1
320
 41
0.8
100
AcDbText
  0
LINE
  5
E1B
330
1E
100
AcDbEntity
  8
寸法
  6
Continuous
100
AcDbLine
 10
376.6190060899216
 20
327.3553213769625
 30
0.0
 11
376.6190060899216
 21
282.3553213769625
 31
0.0
  0
LINE
  5
E1C
330
1E
100
AcDbEntity
  8
寸法
  6
Continuous
100
AcDbLine
 10
56.59400608992164
 20
327.3553213769625
 30
0.0
 11
56.59400608992164
 21
282.3553213769625
 31
0.0
  0
LINE
  5
E1D
330
1E
100
AcDbEntity
  8
寸法
  6
Continuous
100
AcDbLine
 10
346.6190060899216
 20
247.5553213769625
 30
0.0
 11
346.6190060899216
 21
146.1553213769624
 31
0.0
  0
LINE
  5
E1E
330
1E
100
AcDbEntity
  8
寸法
  6
Continuous
100
AcDbLine
 10
236.5940060899216
 20
247.5553213769625
 30
0.0
 11
236.5940060899216
 21
146.1553213769624
 31
0.0
  0
LINE
  5
E1F
330
1E
100
AcDbEntity
  8
寸法
  6
Continuous
100
AcDbLine
 10
211.5440060899217
 20
247.5553213769625
 30
0.0
 11
211.5440060899217
 21
146.1553213769624
 31
0.0
  0
LINE
  5
E20
330
1E
100
AcDbEntity
  8
寸法
  6
Continuous
100
AcDbLine
 10
101.5190060899216
 20
247.5553213769625
 30
0.0
 11
101.5190060899216
 21
146.1553213769624
 31
0.0
  0
LINE
  5
E21
330
1E
100
AcDbEntity
  8
寸法
  6
Continuous
100
AcDbLine
 10
83.59400608992164
 20
247.5553213769625
 30
0.0
 11
83.59400608992164
 21
191.7553213769624
 31
0.0
  0
LINE
  5
E22
330
1E
100
AcDbEntity
  8
寸法
  6
Continuous
100
AcDbLine
 10
376.6190060899216
 20
247.5553213769625
 30
0.0
 11
376.6190060899216
 21
191.7553213769624
 31
0.0
  0
LINE
  5
E23
330
1E
100
AcDbEntity
  8
寸法
  6
Continuous
100
AcDbLine
 10
56.59400608992164
 20
290.1553213769624
 30
0.0
 11
56.59400608992164
 21
191.7553213769624
 31
0.0
  0
LINE
  5
E24
330
1E
100
AcDbEntity
  8
寸法
  6
Continuous
100
AcDbLine
 10
371.5940060899217
 20
146.1553213769624
 30
0.0
 11
371.5940060899217
 21
247.5553213769625
 31
0.0
  0
INSERT
  5
E25
330
1E
100
AcDbEntity
  8
寸法
100
AcDbBlockReference
  2
*G9
 10
65.74400608992164
 20
162.5053213769624
 30
0.0
  0
TEXT
  5
E26
330
1E
100
AcDbEntity
  8
寸法
100
AcDbText
 10
427.5440060899216
 20
63.88032137696246
 30
0.0
 40
15.0
  1
φ120
 50
90.0
 41
0.85
100
AcDbText
  0
LINE
  5
E27
330
1E
100
AcDbEntity
  8
寸法
  6
Continuous
100
AcDbLine
 10
431.2940060899216
 20
136.1053213769624
 30
0.0
 11
386.2940060899217
 21
136.1053213769624
 31
0.0
  0
LINE
  5
E28
330
1E
100
AcDbEntity
  8
寸法
  6
Continuous
100
AcDbLine
 10
431.2940060899216
 20
16.10532137696248
 30
0.0
 11
386.2940060899217
 21
16.10532137696248
 31
0.0
  0
INSERT
  5
E29
330
1E
100
AcDbEntity
  8
寸法
100
AcDbBlockReference
  2
*G10
 10
65.74400608992164
 20
162.5053213769624
 30
0.0
  0
TEXT
  5
E2A
330
1E
100
AcDbEntity
  8
寸法
100
AcDbText
 10
-38.05599391007837
 20
63.88032137696246
 30
0.0
 40
15.0
  1
φ215
 50
90.0
 41
0.85
100
AcDbText
  0
INSERT
  5
E2B
330
1E
100
AcDbEntity
  8
寸法
100
AcDbBlockReference
  2
*G11
 10
-50.74495343113131
 20
-432.1730557150899
 30
0.0
  0
TEXT
  5
E2C
330
1E
100
AcDbEntity
  8
寸法
100
AcDbText
 10
-204.9449534311313
 20
-233.79805571509
 30
0.0
 40
15.0
  1
120
 50
90.0
 41
0.95
100
AcDbText
  0
LINE
  5
E2D
330
1E
100
AcDbEntity
  8
寸法
  6
Continuous
100
AcDbLine
 10
-201.1949534311313
 20
-161.6480557150899
 30
0.0
 11
-246.1949534311314
 21
-161.6480557150899
 31
0.0
  0
LINE
  5
E2E
330
1E
100
AcDbEntity
  8
寸法
  6
Continuous
100
AcDbLine
 10
-201.1949534311313
 20
-281.4230557150899
 30
0.0
 11
-246.1949534311314
 21
-281.4230557150899
 31
0.0
  0
INSERT
  5
E2F
330
1E
100
AcDbEntity
  8
寸法
100
AcDbBlockReference
  2
*G12
 10
65.74400608992164
 20
162.5053213769624
 30
0.0
  0
TEXT
  5
E30
330
1E
100
AcDbEntity
  8
寸法
100
AcDbText
 10
462.6440060899216
 20
55.48032137696248
 30
0.0
 40
15.0
  1
φ166.3
 50
90.0
 41
0.85
100
AcDbText
  0
INSERT
  5
E31
330
1E
100
AcDbEntity
  8
寸法
100
AcDbBlockReference
  2
*G13
 10
65.74400608992164
 20
162.5053213769624
 30
0.0
  0
TEXT
  5
E32
330
1E
100
AcDbEntity
  8
寸法
100
AcDbText
 10
-3.105993910078382
 20
63.95532137696244
 30
0.0
 40
15.0
  1
φ105
 50
90.0
 41
0.85
100
AcDbText
  0
LINE
  5
E33
330
1E
100
AcDbEntity
  8
寸法
  6
Continuous
100
AcDbLine
 10
0.6440060899216178
 20
23.60532137696248
 30
0.0
 11
45.64400608992165
 21
23.60532137696248
 31
0.0
  0
LINE
  5
E34
330
1E
100
AcDbEntity
  8
寸法
  6
Continuous
100
AcDbLine
 10
0.6440060899216178
 20
128.7553213769624
 30
0.0
 11
45.64400608992165
 21
128.7553213769624
 31
0.0
  0
LINE
  5
E35
330
1E
100
AcDbEntity
  8
寸法
  6
Continuous
100
AcDbLine
 10
466.3940060899216
 20
159.2053213769624
 30
0.0
 11
385.2440060899216
 21
159.2053213769624
 31
0.0
  0
LINE
  5
E36
330
1E
100
AcDbEntity
  8
寸法
  6
Continuous
100
AcDbLine
 10
466.3940060899216
 20
-6.994678623037543
 30
0.0
 11
385.2440060899216
 21
-6.994678623037543
 31
0.0
  0
LINE
  5
E37
330
1E
100
AcDbEntity
  8
寸法
  6
Continuous
100
AcDbLine
 10
-34.30599391007837
 20
183.5803213769624
 30
0.0
 11
49.24400608992164
 21
183.5803213769624
 31
0.0
  0
LINE
  5
E38
330
1E
100
AcDbEntity
  8
寸法
  6
Continuous
100
AcDbLine
 10
-34.30599391007837
 20
-31.36967862303754
 30
0.0
 11
49.24400608992164
 21
-31.36967862303754
 31
0.0
  0
INSERT
  5
E39
330
1E
100
AcDbEntity
  8
寸法
100
AcDbBlockReference
  2
*G14
 10
43.80616250283401
 20
156.0526232687321
 30
0.0
  0
TEXT
  5
E3A
330
1E
100
AcDbEntity
  8
寸法
100
AcDbText
 10
-272.468837497166
 20
74.82762326873205
 30
0.0
 40
15.0
  1
135.0
 50
33.35
 41
0.9
100
AcDbText
  0
LINE
  5
E3D
330
1E
100
AcDbEntity
  8
ﾊｯﾁﾝｸﾞ
  6
Continuous
100
AcDbLine
 10
368.4440060899216
 20
159.2053213769624
 30
0.0
 11
376.6190060899216
 21
167.3803213769624
 31
0.0
  0
LINE
  5
E3E
330
1E
100
AcDbEntity
  8
ﾊｯﾁﾝｸﾞ
  6
Continuous
100
AcDbLine
 10
359.9690060899217
 20
159.2053213769624
 30
0.0
 11
376.6190060899216
 21
175.8553213769624
 31
0.0
  0
LINE
  5
E3F
330
1E
100
AcDbEntity
  8
ﾊｯﾁﾝｸﾞ
  6
Continuous
100
AcDbLine
 10
351.4940060899216
 20
159.2053213769624
 30
0.0
 11
375.8690060899216
 21
183.5803213769624
 31
0.0
  0
LINE
  5
E40
330
1E
100
AcDbEntity
  8
ﾊｯﾁﾝｸﾞ
  6
Continuous
100
AcDbLine
 10
343.0190060899217
 20
159.2053213769624
 30
0.0
 11
367.3940060899217
 21
183.5803213769624
 31
0.0
  0
LINE
  5
E41
330
1E
100
AcDbEntity
  8
ﾊｯﾁﾝｸﾞ
  6
Continuous
100
AcDbLine
 10
334.5440060899217
 20
159.2053213769624
 30
0.0
 11
358.9190060899217
 21
183.5803213769624
 31
0.0
  0
LINE
  5
E42
330
1E
100
AcDbEntity
  8
ﾊｯﾁﾝｸﾞ
  6
Continuous
100
AcDbLine
 10
326.0690060899216
 20
159.2053213769624
 30
0.0
 11
350.4440060899217
 21
183.5803213769624
 31
0.0
  0
LINE
  5
E43
330
1E
100
AcDbEntity
  8
ﾊｯﾁﾝｸﾞ
  6
Continuous
100
AcDbLine
 10
317.5940060899216
 20
159.2053213769624
 30
0.0
 11
341.9690060899217
 21
183.5803213769624
 31
0.0
  0
LINE
  5
E44
330
1E
100
AcDbEntity
  8
ﾊｯﾁﾝｸﾞ
  6
Continuous
100
AcDbLine
 10
309.0440060899216
 20
159.2053213769624
 30
0.0
 11
333.4190060899217
 21
183.5803213769624
 31
0.0
  0
LINE
  5
E45
330
1E
100
AcDbEntity
  8
ﾊｯﾁﾝｸﾞ
  6
Continuous
100
AcDbLine
 10
300.5690060899217
 20
159.2053213769624
 30
0.0
 11
324.9440060899216
 21
183.5803213769624
 31
0.0
  0
LINE
  5
E46
330
1E
100
AcDbEntity
  8
ﾊｯﾁﾝｸﾞ
  6
Continuous
100
AcDbLine
 10
292.0940060899217
 20
159.2053213769624
 30
0.0
 11
316.4690060899217
 21
183.5803213769624
 31
0.0
  0
LINE
  5
E47
330
1E
100
AcDbEntity
  8
ﾊｯﾁﾝｸﾞ
  6
Continuous
100
AcDbLine
 10
283.6190060899216
 20
159.2053213769624
 30
0.0
 11
307.9940060899216
 21
183.5803213769624
 31
0.0
  0
LINE
  5
E48
330
1E
100
AcDbEntity
  8
ﾊｯﾁﾝｸﾞ
  6
Continuous
100
AcDbLine
 10
275.1440060899216
 20
159.2053213769624
 30
0.0
 11
299.5190060899216
 21
183.5803213769624
 31
0.0
  0
LINE
  5
E49
330
1E
100
AcDbEntity
  8
ﾊｯﾁﾝｸﾞ
  6
Continuous
100
AcDbLine
 10
266.6690060899217
 20
159.2053213769624
 30
0.0
 11
291.0440060899217
 21
183.5803213769624
 31
0.0
  0
LINE
  5
E4A
330
1E
100
AcDbEntity
  8
ﾊｯﾁﾝｸﾞ
  6
Continuous
100
AcDbLine
 10
258.1940060899217
 20
159.2053213769624
 30
0.0
 11
282.5690060899217
 21
183.5803213769624
 31
0.0
  0
LINE
  5
E4B
330
1E
100
AcDbEntity
  8
ﾊｯﾁﾝｸﾞ
  6
Continuous
100
AcDbLine
 10
249.6440060899216
 20
159.2053213769624
 30
0.0
 11
274.0190060899216
 21
183.5803213769624
 31
0.0
  0
LINE
  5
E4C
330
1E
100
AcDbEntity
  8
ﾊｯﾁﾝｸﾞ
  6
Continuous
100
AcDbLine
 10
241.1690060899216
 20
159.2053213769624
 30
0.0
 11
265.5440060899216
 21
183.5803213769624
 31
0.0
  0
LINE
  5
E4D
330
1E
100
AcDbEntity
  8
ﾊｯﾁﾝｸﾞ
  6
Continuous
100
AcDbLine
 10
232.6940060899217
 20
159.2053213769624
 30
0.0
 11
257.0690060899217
 21
183.5803213769624
 31
0.0
  0
LINE
  5
E4E
330
1E
100
AcDbEntity
  8
ﾊｯﾁﾝｸﾞ
  6
Continuous
100
AcDbLine
 10
224.2190060899217
 20
159.2053213769624
 30
0.0
 11
248.5940060899217
 21
183.5803213769624
 31
0.0
  0
LINE
  5
E4F
330
1E
100
AcDbEntity
  8
ﾊｯﾁﾝｸﾞ
  6
Continuous
100
AcDbLine
 10
215.7440060899217
 20
159.2053213769624
 30
0.0
 11
240.1190060899216
 21
183.5803213769624
 31
0.0
  0
LINE
  5
E50
330
1E
100
AcDbEntity
  8
ﾊｯﾁﾝｸﾞ
  6
Continuous
100
AcDbLine
 10
207.2690060899216
 20
159.2053213769624
 30
0.0
 11
231.6440060899216
 21
183.5803213769624
 31
0.0
  0
LINE
  5
E51
330
1E
100
AcDbEntity
  8
ﾊｯﾁﾝｸﾞ
  6
Continuous
100
AcDbLine
 10
198.7940060899216
 20
159.2053213769624
 30
0.0
 11
223.1690060899217
 21
183.5803213769624
 31
0.0
  0
LINE
  5
E52
330
1E
100
AcDbEntity
  8
ﾊｯﾁﾝｸﾞ
  6
Continuous
100
AcDbLine
 10
190.2440060899216
 20
159.2053213769624
 30
0.0
 11
214.6190060899217
 21
183.5803213769624
 31
0.0
  0
LINE
  5
E53
330
1E
100
AcDbEntity
  8
ﾊｯﾁﾝｸﾞ
  6
Continuous
100
AcDbLine
 10
181.7690060899216
 20
159.2053213769624
 30
0.0
 11
206.1440060899216
 21
183.5803213769624
 31
0.0
  0
LINE
  5
E54
330
1E
100
AcDbEntity
  8
ﾊｯﾁﾝｸﾞ
  6
Continuous
100
AcDbLine
 10
173.2940060899216
 20
159.2053213769624
 30
0.0
 11
197.6690060899216
 21
183.5803213769624
 31
0.0
  0
LINE
  5
E55
330
1E
100
AcDbEntity
  8
ﾊｯﾁﾝｸﾞ
  6
Continuous
100
AcDbLine
 10
164.8190060899216
 20
159.2053213769624
 30
0.0
 11
189.1940060899216
 21
183.5803213769624
 31
0.0
  0
LINE
  5
E56
330
1E
100
AcDbEntity
  8
ﾊｯﾁﾝｸﾞ
  6
Continuous
100
AcDbLine
 10
156.3440060899216
 20
159.2053213769624
 30
0.0
 11
180.7190060899216
 21
183.5803213769624
 31
0.0
  0
LINE
  5
E57
330
1E
100
AcDbEntity
  8
ﾊｯﾁﾝｸﾞ
  6
Continuous
100
AcDbLine
 10
147.8690060899216
 20
159.2053213769624
 30
0.0
 11
172.2440060899216
 21
183.5803213769624
 31
0.0
  0
LINE
  5
E58
330
1E
100
AcDbEntity
  8
ﾊｯﾁﾝｸﾞ
  6
Continuous
100
AcDbLine
 10
139.3940060899216
 20
159.2053213769624
 30
0.0
 11
163.7690060899216
 21
183.5803213769624
 31
0.0
  0
LINE
  5
E59
330
1E
100
AcDbEntity
  8
ﾊｯﾁﾝｸﾞ
  6
Continuous
100
AcDbLine
 10
130.9190060899216
 20
159.2053213769624
 30
0.0
 11
155.2940060899216
 21
183.5803213769624
 31
0.0
  0
LINE
  5
E5A
330
1E
100
AcDbEntity
  8
ﾊｯﾁﾝｸﾞ
  6
Continuous
100
AcDbLine
 10
122.3690060899216
 20
159.2053213769624
 30
0.0
 11
146.7440060899216
 21
183.5803213769624
 31
0.0
  0
LINE
  5
E5B
330
1E
100
AcDbEntity
  8
ﾊｯﾁﾝｸﾞ
  6
Continuous
100
AcDbLine
 10
83.29400608992164
 20
128.6053213769624
 30
0.0
 11
86.59400608992163
 21
131.9053213769624
 31
0.0
  0
LINE
  5
E5C
330
1E
100
AcDbEntity
  8
ﾊｯﾁﾝｸﾞ
  6
Continuous
100
AcDbLine
 10
113.8940060899216
 20
159.2053213769624
 30
0.0
 11
138.2690060899216
 21
183.5803213769624
 31
0.0
  0
LINE
  5
E5D
330
1E
100
AcDbEntity
  8
ﾊｯﾁﾝｸﾞ
  6
Continuous
100
AcDbLine
 10
74.81900608992164
 20
128.6053213769624
 30
0.0
 11
86.59400608992163
 21
140.3803213769624
 31
0.0
  0
LINE
  5
E5E
330
1E
100
AcDbEntity
  8
ﾊｯﾁﾝｸﾞ
  6
Continuous
100
AcDbLine
 10
105.4190060899216
 20
159.2053213769624
 30
0.0
 11
129.7940060899216
 21
183.5803213769624
 31
0.0
  0
LINE
  5
E5F
330
1E
100
AcDbEntity
  8
ﾊｯﾁﾝｸﾞ
  6
Continuous
100
AcDbLine
 10
66.34400608992163
 20
128.6053213769624
 30
0.0
 11
86.59400608992163
 21
148.8553213769624
 31
0.0
  0
LINE
  5
E60
330
1E
100
AcDbEntity
  8
ﾊｯﾁﾝｸﾞ
  6
Continuous
100
AcDbLine
 10
96.94400608992163
 20
159.2053213769624
 30
0.0
 11
121.3190060899216
 21
183.5803213769624
 31
0.0
  0
LINE
  5
E61
330
1E
100
AcDbEntity
  8
ﾊｯﾁﾝｸﾞ
  6
Continuous
100
AcDbLine
 10
57.86900608992164
 20
128.6053213769624
 30
0.0
 11
86.59400608992163
 21
157.3303213769624
 31
0.0
  0
LINE
  5
E62
330
1E
100
AcDbEntity
  8
ﾊｯﾁﾝｸﾞ
  6
Continuous
100
AcDbLine
 10
88.46900608992163
 20
159.2053213769624
 30
0.0
 11
112.8440060899216
 21
183.5803213769624
 31
0.0
  0
LINE
  5
E63
330
1E
100
AcDbEntity
  8
ﾊｯﾁﾝｸﾞ
  6
Continuous
100
AcDbLine
 10
56.59400608992164
 20
135.8053213769624
 30
0.0
 11
104.3690060899216
 21
183.5803213769624
 31
0.0
  0
LINE
  5
E64
330
1E
100
AcDbEntity
  8
ﾊｯﾁﾝｸﾞ
  6
Continuous
100
AcDbLine
 10
56.59400608992164
 20
144.2803213769624
 30
0.0
 11
95.89400608992164
 21
183.5803213769624
 31
0.0
  0
LINE
  5
E65
330
1E
100
AcDbEntity
  8
ﾊｯﾁﾝｸﾞ
  6
Continuous
100
AcDbLine
 10
56.59400608992164
 20
152.8303213769624
 30
0.0
 11
87.34400608992164
 21
183.5803213769624
 31
0.0
  0
LINE
  5
E66
330
1E
100
AcDbEntity
  8
ﾊｯﾁﾝｸﾞ
  6
Continuous
100
AcDbLine
 10
56.59400608992164
 20
161.3053213769624
 30
0.0
 11
78.86900608992164
 21
183.5803213769624
 31
0.0
  0
LINE
  5
E67
330
1E
100
AcDbEntity
  8
ﾊｯﾁﾝｸﾞ
  6
Continuous
100
AcDbLine
 10
56.59400608992164
 20
169.7803213769624
 30
0.0
 11
70.39400608992164
 21
183.5803213769624
 31
0.0
  0
LINE
  5
E68
330
1E
100
AcDbEntity
  8
ﾊｯﾁﾝｸﾞ
  6
Continuous
100
AcDbLine
 10
56.59400608992164
 20
178.2553213769624
 30
0.0
 11
61.91900608992163
 21
183.5803213769624
 31
0.0
  0
LINE
  5
E69
330
1E
100
AcDbEntity
  8
ﾊｯﾁﾝｸﾞ
  6
Continuous
100
AcDbLine
 10
56.59400608992164
 20
134.5303213769624
 30
0.0
 11
62.51900608992165
 21
128.6053213769624
 31
0.0
  0
LINE
  5
E6A
330
1E
100
AcDbEntity
  8
ﾊｯﾁﾝｸﾞ
  6
Continuous
100
AcDbLine
 10
56.59400608992164
 20
143.0053213769624
 30
0.0
 11
70.99400608992164
 21
128.6053213769624
 31
0.0
  0
LINE
  5
E6B
330
1E
100
AcDbEntity
  8
ﾊｯﾁﾝｸﾞ
  6
Continuous
100
AcDbLine
 10
56.59400608992164
 20
151.4803213769624
 30
0.0
 11
79.46900608992163
 21
128.6053213769624
 31
0.0
  0
LINE
  5
E6C
330
1E
100
AcDbEntity
  8
ﾊｯﾁﾝｸﾞ
  6
Continuous
100
AcDbLine
 10
56.59400608992164
 20
159.9553213769624
 30
0.0
 11
86.59400608992163
 21
129.9553213769624
 31
0.0
  0
LINE
  5
E6D
330
1E
100
AcDbEntity
  8
ﾊｯﾁﾝｸﾞ
  6
Continuous
100
AcDbLine
 10
56.59400608992164
 20
168.4303213769624
 30
0.0
 11
86.59400608992163
 21
138.4303213769624
 31
0.0
  0
LINE
  5
E6E
330
1E
100
AcDbEntity
  8
ﾊｯﾁﾝｸﾞ
  6
Continuous
100
AcDbLine
 10
56.59400608992164
 20
176.9053213769624
 30
0.0
 11
86.59400608992163
 21
146.9053213769624
 31
0.0
  0
LINE
  5
E6F
330
1E
100
AcDbEntity
  8
ﾊｯﾁﾝｸﾞ
  6
Continuous
100
AcDbLine
 10
86.59400608992163
 20
155.3803213769624
 30
0.0
 11
58.39400608992164
 21
183.5803213769624
 31
0.0
  0
LINE
  5
E70
330
1E
100
AcDbEntity
  8
ﾊｯﾁﾝｸﾞ
  6
Continuous
100
AcDbLine
 10
91.24400608992164
 20
159.2053213769624
 30
0.0
 11
66.86900608992164
 21
183.5803213769624
 31
0.0
  0
LINE
  5
E71
330
1E
100
AcDbEntity
  8
ﾊｯﾁﾝｸﾞ
  6
Continuous
100
AcDbLine
 10
99.79400608992165
 20
159.2053213769624
 30
0.0
 11
75.41900608992164
 21
183.5803213769624
 31
0.0
  0
LINE
  5
E72
330
1E
100
AcDbEntity
  8
ﾊｯﾁﾝｸﾞ
  6
Continuous
100
AcDbLine
 10
108.2690060899216
 20
159.2053213769624
 30
0.0
 11
83.89400608992165
 21
183.5803213769624
 31
0.0
  0
LINE
  5
E73
330
1E
100
AcDbEntity
  8
ﾊｯﾁﾝｸﾞ
  6
Continuous
100
AcDbLine
 10
116.7440060899216
 20
159.2053213769624
 30
0.0
 11
92.36900608992163
 21
183.5803213769624
 31
0.0
  0
LINE
  5
E74
330
1E
100
AcDbEntity
  8
ﾊｯﾁﾝｸﾞ
  6
Continuous
100
AcDbLine
 10
125.2190060899216
 20
159.2053213769624
 30
0.0
 11
100.8440060899216
 21
183.5803213769624
 31
0.0
  0
LINE
  5
E75
330
1E
100
AcDbEntity
  8
ﾊｯﾁﾝｸﾞ
  6
Continuous
100
AcDbLine
 10
133.6940060899216
 20
159.2053213769624
 30
0.0
 11
109.3190060899216
 21
183.5803213769624
 31
0.0
  0
LINE
  5
E76
330
1E
100
AcDbEntity
  8
ﾊｯﾁﾝｸﾞ
  6
Continuous
100
AcDbLine
 10
142.1690060899216
 20
159.2053213769624
 30
0.0
 11
117.7940060899216
 21
183.5803213769624
 31
0.0
  0
LINE
  5
E77
330
1E
100
AcDbEntity
  8
ﾊｯﾁﾝｸﾞ
  6
Continuous
100
AcDbLine
 10
150.6440060899216
 20
159.2053213769624
 30
0.0
 11
126.2690060899216
 21
183.5803213769624
 31
0.0
  0
LINE
  5
E78
330
1E
100
AcDbEntity
  8
ﾊｯﾁﾝｸﾞ
  6
Continuous
100
AcDbLine
 10
159.1940060899216
 20
159.2053213769624
 30
0.0
 11
134.8190060899216
 21
183.5803213769624
 31
0.0
  0
LINE
  5
E79
330
1E
100
AcDbEntity
  8
ﾊｯﾁﾝｸﾞ
  6
Continuous
100
AcDbLine
 10
167.6690060899216
 20
159.2053213769624
 30
0.0
 11
143.2940060899216
 21
183.5803213769624
 31
0.0
  0
LINE
  5
E7A
330
1E
100
AcDbEntity
  8
ﾊｯﾁﾝｸﾞ
  6
Continuous
100
AcDbLine
 10
176.1440060899216
 20
159.2053213769624
 30
0.0
 11
151.7690060899216
 21
183.5803213769624
 31
0.0
  0
LINE
  5
E7B
330
1E
100
AcDbEntity
  8
ﾊｯﾁﾝｸﾞ
  6
Continuous
100
AcDbLine
 10
184.6190060899216
 20
159.2053213769624
 30
0.0
 11
160.2440060899216
 21
183.5803213769624
 31
0.0
  0
LINE
  5
E7C
330
1E
100
AcDbEntity
  8
ﾊｯﾁﾝｸﾞ
  6
Continuous
100
AcDbLine
 10
193.0940060899216
 20
159.2053213769624
 30
0.0
 11
168.7190060899216
 21
183.5803213769624
 31
0.0
  0
LINE
  5
E7D
330
1E
100
AcDbEntity
  8
ﾊｯﾁﾝｸﾞ
  6
Continuous
100
AcDbLine
 10
201.5690060899216
 20
159.2053213769624
 30
0.0
 11
177.1940060899216
 21
183.5803213769624
 31
0.0
  0
LINE
  5
E7E
330
1E
100
AcDbEntity
  8
ﾊｯﾁﾝｸﾞ
  6
Continuous
100
AcDbLine
 10
210.0440060899217
 20
159.2053213769624
 30
0.0
 11
185.6690060899216
 21
183.5803213769624
 31
0.0
  0
LINE
  5
E7F
330
1E
100
AcDbEntity
  8
ﾊｯﾁﾝｸﾞ
  6
Continuous
100
AcDbLine
 10
218.5940060899217
 20
159.2053213769624
 30
0.0
 11
194.2190060899216
 21
183.5803213769624
 31
0.0
  0
LINE
  5
E80
330
1E
100
AcDbEntity
  8
ﾊｯﾁﾝｸﾞ
  6
Continuous
100
AcDbLine
 10
227.0690060899217
 20
159.2053213769624
 30
0.0
 11
202.6940060899216
 21
183.5803213769624
 31
0.0
  0
LINE
  5
E81
330
1E
100
AcDbEntity
  8
ﾊｯﾁﾝｸﾞ
  6
Continuous
100
AcDbLine
 10
235.5440060899216
 20
159.2053213769624
 30
0.0
 11
211.1690060899217
 21
183.5803213769624
 31
0.0
  0
LINE
  5
E82
330
1E
100
AcDbEntity
  8
ﾊｯﾁﾝｸﾞ
  6
Continuous
100
AcDbLine
 10
244.0190060899216
 20
159.2053213769624
 30
0.0
 11
219.6440060899216
 21
183.5803213769624
 31
0.0
  0
LINE
  5
E83
330
1E
100
AcDbEntity
  8
ﾊｯﾁﾝｸﾞ
  6
Continuous
100
AcDbLine
 10
252.4940060899216
 20
159.2053213769624
 30
0.0
 11
228.1190060899216
 21
183.5803213769624
 31
0.0
  0
LINE
  5
E84
330
1E
100
AcDbEntity
  8
ﾊｯﾁﾝｸﾞ
  6
Continuous
100
AcDbLine
 10
260.9690060899217
 20
159.2053213769624
 30
0.0
 11
236.5940060899216
 21
183.5803213769624
 31
0.0
  0
LINE
  5
E85
330
1E
100
AcDbEntity
  8
ﾊｯﾁﾝｸﾞ
  6
Continuous
100
AcDbLine
 10
269.4440060899217
 20
159.2053213769624
 30
0.0
 11
245.0690060899217
 21
183.5803213769624
 31
0.0
  0
LINE
  5
E86
330
1E
100
AcDbEntity
  8
ﾊｯﾁﾝｸﾞ
  6
Continuous
100
AcDbLine
 10
277.9940060899217
 20
159.2053213769624
 30
0.0
 11
253.6190060899216
 21
183.5803213769624
 31
0.0
  0
LINE
  5
E87
330
1E
100
AcDbEntity
  8
ﾊｯﾁﾝｸﾞ
  6
Continuous
100
AcDbLine
 10
286.4690060899217
 20
159.2053213769624
 30
0.0
 11
262.0940060899217
 21
183.5803213769624
 31
0.0
  0
LINE
  5
E88
330
1E
100
AcDbEntity
  8
ﾊｯﾁﾝｸﾞ
  6
Continuous
100
AcDbLine
 10
294.9440060899217
 20
159.2053213769624
 30
0.0
 11
270.5690060899217
 21
183.5803213769624
 31
0.0
  0
LINE
  5
E89
330
1E
100
AcDbEntity
  8
ﾊｯﾁﾝｸﾞ
  6
Continuous
100
AcDbLine
 10
303.4190060899216
 20
159.2053213769624
 30
0.0
 11
279.0440060899217
 21
183.5803213769624
 31
0.0
  0
LINE
  5
E8A
330
1E
100
AcDbEntity
  8
ﾊｯﾁﾝｸﾞ
  6
Continuous
100
AcDbLine
 10
311.8940060899216
 20
159.2053213769624
 30
0.0
 11
287.5190060899216
 21
183.5803213769624
 31
0.0
  0
LINE
  5
E8B
330
1E
100
AcDbEntity
  8
ﾊｯﾁﾝｸﾞ
  6
Continuous
100
AcDbLine
 10
320.3690060899216
 20
159.2053213769624
 30
0.0
 11
295.9940060899216
 21
183.5803213769624
 31
0.0
  0
LINE
  5
E8C
330
1E
100
AcDbEntity
  8
ﾊｯﾁﾝｸﾞ
  6
Continuous
100
AcDbLine
 10
328.8440060899217
 20
159.2053213769624
 30
0.0
 11
304.4690060899217
 21
183.5803213769624
 31
0.0
  0
LINE
  5
E8D
330
1E
100
AcDbEntity
  8
ﾊｯﾁﾝｸﾞ
  6
Continuous
100
AcDbLine
 10
337.3190060899216
 20
159.2053213769624
 30
0.0
 11
312.9440060899217
 21
183.5803213769624
 31
0.0
  0
LINE
  5
E8E
330
1E
100
AcDbEntity
  8
ﾊｯﾁﾝｸﾞ
  6
Continuous
100
AcDbLine
 10
345.8690060899217
 20
159.2053213769624
 30
0.0
 11
321.4940060899217
 21
183.5803213769624
 31
0.0
  0
LINE
  5
E8F
330
1E
100
AcDbEntity
  8
ﾊｯﾁﾝｸﾞ
  6
Continuous
100
AcDbLine
 10
354.3440060899217
 20
159.2053213769624
 30
0.0
 11
329.9690060899217
 21
183.5803213769624
 31
0.0
  0
LINE
  5
E90
330
1E
100
AcDbEntity
  8
ﾊｯﾁﾝｸﾞ
  6
Continuous
100
AcDbLine
 10
362.8190060899216
 20
159.2053213769624
 30
0.0
 11
338.4440060899216
 21
183.5803213769624
 31
0.0
  0
LINE
  5
E91
330
1E
100
AcDbEntity
  8
ﾊｯﾁﾝｸﾞ
  6
Continuous
100
AcDbLine
 10
371.2940060899216
 20
159.2053213769624
 30
0.0
 11
346.9190060899216
 21
183.5803213769624
 31
0.0
  0
LINE
  5
E92
330
1E
100
AcDbEntity
  8
ﾊｯﾁﾝｸﾞ
  6
Continuous
100
AcDbLine
 10
376.6190060899216
 20
162.3553213769624
 30
0.0
 11
355.3940060899217
 21
183.5803213769624
 31
0.0
  0
LINE
  5
E93
330
1E
100
AcDbEntity
  8
ﾊｯﾁﾝｸﾞ
  6
Continuous
100
AcDbLine
 10
376.6190060899216
 20
170.8303213769624
 30
0.0
 11
363.8690060899216
 21
183.5803213769624
 31
0.0
  0
LINE
  5
E94
330
1E
100
AcDbEntity
  8
ﾊｯﾁﾝｸﾞ
  6
Continuous
100
AcDbLine
 10
376.6190060899216
 20
179.3053213769624
 30
0.0
 11
372.3440060899217
 21
183.5803213769624
 31
0.0
  0
MTEXT
  5
EA7
330
1E
100
AcDbEntity
  8
ﾚｲﾔ1
 62
     5
100
AcDbMText
 10
423.3372021871341
 20
-340.5586204087244
 30
0.0
 40
9.0
 41
8.4801
 71
     1
 72
     5
  1
図
 73
     1
 44
1.0
1001
ACAD
1000
MTEXTBEGIN
1070
    73
1070
     1
1070
    44
1040
1.0
1070
    74
1070
     0
1000
MTEXTEND
  0
CIRCLE
  5
EBB
330
1E
100
AcDbEntity
  8
ﾚｲﾔ1
100
AcDbCircle
 10
-275.6786674049363
 20
69.43940022093238
 30
0.0
 40
107.5
  0
LEADER
  5
EBE
330
1E
100
AcDbEntity
  8
寸法
100
AcDbLeader
  3
Standard
 76
     3
 10
-202.5196695029713
 20
62.90084598506883
 30
0.0
 10
-169.811910638366
 20
-31.51160839736622
 30
0.0
 10
-52.60911017158605
 20
-31.51160839736622
 30
0.0
1001
ACAD
1000
DSTYLE
1002
{
1070
    41
1040
5.0
1070
   341
1005
EB1
1070
   147
1040
0.09
1070
    77
1070
     0
1070
   279
1070
     2
1002
}
  0
LINE
  5
EDE
330
1E
100
AcDbEntity
  8
ﾊｯﾁﾝｸﾞ
 62
    30
100
AcDbLine
 10
-445.9589306409183
 20
-145.409078505303
 30
0.0
 11
-428.7408840545597
 21
-162.6271250916616
 31
0.0
  0
LINE
  5
EDF
330
1E
100
AcDbEntity
  8
ﾊｯﾁﾝｸﾞ
 62
    30
100
AcDbLine
 10
-311.149022807703
 20
-162.6271250916616
 30
0.0
 11
-293.9309762213444
 21
-145.409078505303
 31
0.0
  0
LINE
  5
EE0
330
1E
100
AcDbEntity
  8
ﾊｯﾁﾝｸﾞ
 62
    30
100
AcDbLine
 10
-428.7408840545597
 20
-280.2189863385184
 30
0.0
 11
-445.9589306409183
 21
-297.4370329248769
 31
0.0
  0
LINE
  5
EE1
330
1E
100
AcDbEntity
  8
ﾊｯﾁﾝｸﾞ
 62
    30
100
AcDbLine
 10
-311.149022807703
 20
-280.2189863385184
 30
0.0
 11
-293.9309762213444
 21
-297.4370329248769
 31
0.0
  0
HATCH
  5
EFD
330
1E
100
AcDbEntity
  8
ﾊｯﾁﾝｸﾞ
100
AcDbHatch
 10
0.0
 20
0.0
 30
0.0
210
0.0
220
0.0
230
1.0
  2
ANSI31
 70
     0
 71
     0
 91
        3
 92
        7
 72
     1
 73
     1
 93
        4
 10
-369.9449534311313
 20
-113.9230582150899
 42
0.0
 10
-369.9449534311313
 20
-138.2730532150899
 42
-0.198912367379658
 10
-311.149022807703
 20
-162.6271250916616
 42
0.0
 10
-293.9309762213444
 20
-145.409078505303
 42
0.198912367379658
 97
        0
 92
        7
 72
     1
 73
     1
 93
        4
 10
-369.9449534311313
 20
-113.9230582150899
 42
0.1989123673796581
 10
-445.9589306409183
 20
-145.4090785053031
 42
0.0
 10
-428.7408840545597
 20
-162.6271250916616
 42
-0.198912367379658
 10
-369.9449534311313
 20
-138.2730532150899
 42
0.0
 97
        0
 92
        7
 72
     1
 73
     1
 93
        4
 10
-293.9309762213444
 20
-297.4370329248769
 42
0.0
 10
-311.149022807703
 20
-280.2189863385184
 42
-0.4142135623730951
 10
-428.7408840545597
 20
-280.2189863385184
 42
0.0
 10
-445.9589306409183
 20
-297.4370329248768
 42
0.4142135623730951
 97
        0
 75
     0
 76
     1
 52
30.0
 41
20.0
 77
     0
 78
     1
 53
74.99999999999999
 43
0.0
 44
0.0
 45
-2.41481456572267
 46
0.6470476127563023
 79
     0
 47
0.5040181837410396
 98
        3
 10
-329.6036323576286
 20
-137.4067898105431
 10
-393.661777228866
 20
-134.3826816632718
 10
-394.6705673308438
 20
-315.3252112530877
  0
CIRCLE
  5
F05
330
1E
100
AcDbEntity
  8
ﾚｲﾔ1
100
AcDbCircle
 10
-275.393837497166
 20
69.6526232687321
 30
0.0
 40
52.50108481022088
  0
CIRCLE
  5
F06
330
1E
100
AcDbEntity
  8
ﾚｲﾔ1
100
AcDbCircle
 10
-275.393837497166
 20
69.6526232687321
 30
0.0
 40
67.50126040489911
  0
CIRCLE
  5
F07
330
1E
100
AcDbEntity
  8
ﾚｲﾔ1
100
AcDbCircle
 10
-207.8925770922669
 20
69.6526232687321
 30
0.0
 40
6.977167440083595
  0
CIRCLE
  5
F08
330
1E
100
AcDbEntity
  8
ﾚｲﾔ1
100
AcDbCircle
 10
-342.893837497166
 20
69.6526232687321
 30
0.0
 40
6.975907199067395
  0
VIEWPORT
  5
E9A
102
{ACAD_XDICTIONARY
360
F39
102
}
330
1A
100
AcDbEntity
 67
     1
  8
ﾚｲﾔ1
100
AcDbViewport
 10
0.0
 20
0.0
 30
0.0
 40
0.0
 41
0.0
 68
     1
 69
     1
 12
0.0
 22
0.0
 13
0.0
 23
0.0
 14
10.0
 24
10.0
 15
10.0
 25
10.0
 16
0.0
 26
0.0
 36
1.0
 17
0.0
 27
0.0
 37
0.0
 42
50.0
 43
0.0
 44
0.0
 45
0.0
 50
0.0
 51
0.0
 72
   100
 90
    32800
  1

281
     0
 71
     1
 74
     0
110
0.0
120
0.0
130
0.0
111
1.0
121
0.0
131
0.0
112
0.0
122
1.0
132
0.0
 79
     0
146
0.0
  0
VIEWPORT
  5
E9C
102
{ACAD_XDICTIONARY
360
F3B
102
}
330
1A
100
AcDbEntity
 67
     1
  8
ﾚｲﾔ1
100
AcDbViewport
 10
0.0
 20
0.0
 30
0.0
 40
0.0
 41
0.0
 68
     2
 69
     2
 12
295.8862920999793
 22
-201.4622395219868
 13
0.0
 23
0.0
 14
1.0
 24
1.0
 15
0.0
 25
0.0
 16
0.0
 26
0.0
 36
1.0
 17
0.0
 27
0.0
 37
0.0
 42
50.0
 43
0.0
 44
0.0
 45
445.50000082981
 50
0.0
 51
0.0
 72
   100
 90
    32768
  1

281
     0
 71
     1
 74
     0
110
0.0
120
0.0
130
0.0
111
1.0
121
0.0
131
0.0
112
0.0
122
1.0
132
0.0
 79
     0
146
0.0
  0
ENDSEC
  0
SECTION
  2
OBJECTS
  0
DICTIONARY
  5
C
330
0
100
AcDbDictionary
281
     1
  3
ACAD_COLOR
350
F22
  3
ACAD_GROUP
350
D
  3
ACAD_LAYOUT
350
19
  3
ACAD_MATERIAL
350
F21
  3
ACAD_MLINESTYLE
350
16
  3
ACAD_PLOTSETTINGS
350
18
  3
ACAD_PLOTSTYLENAME
350
E
  3
AcadDim
350
EBD
  3
ACDBHEADERROUNDTRIPXREC
350
F32
  3
AcDbVariableDictionary
350
EE2
  0
DICTIONARY
  5
F39
330
E9A
100
AcDbDictionary
280
     1
281
     1
  3
ACAD_XREC_ROUNDTRIP
360
F3A
  0
DICTIONARY
  5
F3B
330
E9C
100
AcDbDictionary
280
     1
281
     1
  3
ACAD_XREC_ROUNDTRIP
360
F3C
  0
DICTIONARY
  5
F22
102
{ACAD_REACTORS
330
C
102
}
330
C
100
AcDbDictionary
281
     1
  0
DICTIONARY
  5
D
102
{ACAD_REACTORS
330
C
102
}
330
C
100
AcDbDictionary
281
     1
  0
DICTIONARY
  5
19
102
{ACAD_REACTORS
330
C
102
}
330
C
100
AcDbDictionary
281
     1
  3
Model
350
21
  3
ﾚｲｱｳﾄ1
350
1D
  0
DICTIONARY
  5
F21
102
{ACAD_REACTORS
330
C
102
}
330
C
100
AcDbDictionary
281
     1
  0
DICTIONARY
  5
16
102
{ACAD_REACTORS
330
C
102
}
330
C
100
AcDbDictionary
281
     1
  3
Standard
350
17
  0
DICTIONARY
  5
18
102
{ACAD_REACTORS
330
C
102
}
330
C
100
AcDbDictionary
281
     1
  0
ACDBDICTIONARYWDFLT
  5
E
102
{ACAD_REACTORS
330
C
102
}
330
C
100
AcDbDictionary
281
     1
  3
Normal
350
F
100
AcDbDictionaryWithDefault
340
F
  0
XRECORD
  5
EBD
102
{ACAD_REACTORS
330
C
102
}
330
C
100
AcDbXrecord
280
     1
 90
   990106
  3

 60
     0
 61
     0
 62
     1
 63
     3
 64
     0
 65
     0
 66
     0
 67
     3
 68
     1
 69
     0
 70
     0
 71
     0
 72
     0
 40
0.0
170
     0
  0
DICTIONARY
  5
F32
102
{ACAD_REACTORS
330
C
102
}
330
C
100
AcDbDictionary
281
     1
  3
COLORDICT
350
F34
  3
MATERIALDICT
350
F33
  0
DICTIONARY
  5
EE2
102
{ACAD_REACTORS
330
C
102
}
330
C
100
AcDbDictionary
281
     1
  3
DIMASSOC
350
F2F
  3
PROJECTNAME
350
F30
  3
SORTENTS
350
EE3
  0
XRECORD
  5
F3A
102
{ACAD_REACTORS
330
F39
102
}
330
F39
100
AcDbXrecord
280
     1
102
SHADEPLOT
 70
     0
  0
XRECORD
  5
F3C
102
{ACAD_REACTORS
330
F3B
102
}
330
F3B
100
AcDbXrecord
280
     1
102
SHADEPLOT
 70
     0
  0
LAYOUT
  5
21
102
{ACAD_XDICTIONARY
360
F37
102
}
102
{ACAD_REACTORS
330
19
102
}
330
19
100
AcDbPlotSettings
  1

  2
\\SOUKO01\倉庫プリンタ
  4
A3
  6

 40
5.873749732971191
 41
5.873747825622558
 42
5.873748779296875
 43
5.873748779296875
 44
296.9259948730469
 45
419.9466552734374
 46
0.0
 47
2.459999999999999
 48
0.0
 49
0.0
140
0.0
141
0.0
142
1.0
143
3.124454318589763
 70
 11956
 72
     1
 73
     1
 74
     1
  7

 75
     0
147
0.3200558875353808
148
630.0192125786256
149
445.5135860377415
100
AcDbLayout
  1
Model
 70
     1
 71
     0
 10
0.0
 20
0.0
 11
12.0
 21
9.0
 12
0.0
 22
0.0
 32
0.0
 14
0.0
 24
0.0
 34
0.0
 15
0.0
 25
0.0
 35
0.0
146
0.0
 13
0.0
 23
0.0
 33
0.0
 16
1.0
 26
0.0
 36
0.0
 17
0.0
 27
1.0
 37
0.0
 76
     0
330
1E
  0
LAYOUT
  5
1D
102
{ACAD_XDICTIONARY
360
F35
102
}
102
{ACAD_REACTORS
330
19
102
}
330
19
100
AcDbPlotSettings
  1

  2
なし
  4

  6

 40
0.0
 41
0.0
 42
0.0
 43
0.0
 44
0.0
 45
0.0
 46
0.0
 47
0.0
 48
0.0
 49
0.0
140
0.0
141
0.0
142
1.0
143
1.0
 70
   688
 72
     0
 73
     1
 74
     1
  7

 75
     0
147
1.0
148
0.0
149
0.0
100
AcDbLayout
  1
ﾚｲｱｳﾄ1
 70
     1
 71
     1
 10
0.0
 20
0.0
 11
0.0
 21
0.0
 12
0.0
 22
0.0
 32
0.0
 14
0.0
 24
0.0
 34
0.0
 15
0.0
 25
0.0
 35
0.0
146
0.0
 13
0.0
 23
0.0
 33
0.0
 16
1.0
 26
0.0
 36
0.0
 17
0.0
 27
1.0
 37
0.0
 76
     0
330
1A
331
E9A
  0
MLINESTYLE
  5
17
102
{ACAD_REACTORS
330
16
102
}
330
16
100
AcDbMlineStyle
  2
STANDARD
 70
     0
  3

 62
   256
 51
90.0
 52
90.0
 71
     2
 49
0.5
 62
   256
  6
BYLAYER
 49
-0.5
 62
   256
  6
BYLAYER
  0
ACDBPLACEHOLDER
  5
F
102
{ACAD_REACTORS
330
E
102
}
330
E
  0
XRECORD
  5
F34
102
{ACAD_REACTORS
330
F32
102
}
330
F32
100
AcDbXrecord
280
     1
340
F22
  0
XRECORD
  5
F33
102
{ACAD_REACTORS
330
F32
102
}
330
F32
100
AcDbXrecord
280
     1
340
F21
  0
DICTIONARYVAR
  5
F2F
102
{ACAD_REACTORS
330
EE2
102
}
330
EE2
100
DictionaryVariables
280
     0
  1
1
  0
DICTIONARYVAR
  5
F30
102
{ACAD_REACTORS
330
EE2
102
}
330
EE2
100
DictionaryVariables
280
     0
  1

  0
DICTIONARYVAR
  5
EE3
102
{ACAD_REACTORS
330
EE2
102
}
330
EE2
100
DictionaryVariables
280
     0
  1
96
  0
DICTIONARY
  5
F37
330
21
100
AcDbDictionary
280
     1
281
     1
  3
ACAD_XREC_ROUNDTRIP
360
F38
  0
DICTIONARY
  5
F35
330
1D
100
AcDbDictionary
280
     1
281
     1
  3
ACAD_XREC_ROUNDTRIP
360
F36
  0
XRECORD
  5
F38
102
{ACAD_REACTORS
330
F37
102
}
330
F37
100
AcDbXrecord
280
     1
102
SHADEPLOT
 70
     0
102
SHADEPLOTRESLEVEL
 70
     2
102
SHADEPLOTCUSTOMDPI
 70
   300
  0
XRECORD
  5
F36
102
{ACAD_REACTORS
330
F35
102
}
330
F35
100
AcDbXrecord
280
     1
102
SHADEPLOT
 70
     0
102
SHADEPLOTRESLEVEL
 70
     2
102
SHADEPLOTCUSTOMDPI
 70
   300
  0
ENDSEC
  0
EOF
